PrimaNota.ru - самый крупный в мире бесплатный архив песенных текстов, аккордов, табулатур и нот


Brian Balmages - Midnight Madness - бас-таба, видео

Регистрация Запомнить меня
Войти через:  Facebook Google Twitter Vk Yandex Mail.ru

Brian Balmages - Midnight Madness - бас-таба, видео

Печатать
Просмотров: 69
-------------------------------------------------------------------------------
                          Midnight Madness - Brian Balmages
-------------------------------------------------------------------------------
Tabbed by: Sarah Becker


Tuning: Standard (E.A.D.G)

G|-0~~~----0~~~----0~~~----0~~~----------------------------------------------|
D|---------------------------------------------------------------------------|
A|---------------------------------------------------------------------------|
E|---------------------------------------------------------------------------|
   1 + 2 + 3 + 4 + 1 + 2 + 3 + 4 + 1 + 2 + 3 + 4 + 1 + 2 + 3 + 4 +

G|---------------------------------------------------------------------------|
D|---------------------------------------------------------------------------|
A|---------------------------------------------------------------------------|
E|---------------------------------------------------------------------------|
   1 + 2 + 3 + 4 + 1 + 2 + 3 + 4 + 1 + 2 + 3 + 4 + 1 + 2 + 3 + 4 +

G|---------------------------------------------------------------------------|
D|---------------------------------1~~~1~1~1~~~----1~~~----1~~~~~~~----------|
A|---------------------------------------------1~~~----1~~~------------------|
E|---------------------------------------------------------------------------|
   1 + 2 + 3 + 4 + 1 + 2 + 3 + 4 + 1 + 2 + 3 + 4 + 1 + 2 + 3 + 4 +

G|---------------------------------------------------------------------------|
D|-------------0~~~1~~~~~~~1~~~~~~~1~~~1~1~1~~~----1~~~----1~~~~~~~----------|
A|-1~~~1~1~3~~~--------------------------------1~~~----1~~~------------------|
E|---------------------------------------------------------------------------|
   1 + 2 + 3 + 4 + 1 + 2 + 3 + 4 + 1 + 2 + 3 + 4 + 1 + 2 + 3 + 4 +

G|-----------------0~~~~~~~0~~~~~~~0~~~----0~~~----0~~~----0~~~--------------|
D|-----0~~~1~~~3~~~----------------------------------------------------------|
A|-3~~~----------------------------------------------------------------------|
E|---------------------------------------------------------------------------|
   1 + 2 + 3 + 4 + 1 + 2 + 3 + 4 + 1 + 2 + 3 + 4 + 1 + 2 + 3 + 4 +

G|-0~~~----0~~~----0~~~----0~~~----0~~~----0~~~----0~~~----0~~~--------------|
D|---------------------------------------------------------------------------|
A|---------------------------------------------------------------------------|
E|---------------------------------------------------------------------------|
   1 + 2 + 3 + 4 + 1 + 2 + 3 + 4 + 1 + 2 + 3 + 4 + 1 + 2 + 3 + 4 +

G|-0~~~----------------0~~~--------0~~~----0~~~------------0~~~~~~~----------|
D|-------------0~0~1~~~----3~~~0~~~--------------------3~~~------------------|
A|---------3~~~--------------------------------------------------------------|
E|---------------------------------------------------------------------------|
   1 + 2 + 3 + 4 + 1 + 2 + 3 + 4 + 1 + 2 + 3 + 4 + 1 + 2 + 3 + 4 +

G|---------------------------------------------------------------------------|
D|-1~~~1~1~1~~~----1~~~----1~~~~~~~------------0~~~1~~~~~~~1~~~~~~~----------|
A|-------------1~~~----1~~~--------1~~~1~1~3~~~------------------------------|
E|---------------------------------------------------------------------------|
   1 + 2 + 3 + 4 + 1 + 2 + 3 + 4 + 1 + 2 + 3 + 4 + 1 + 2 + 3 + 4 +

G|---------------------------------0~~~0~0~0~~~~~~~0~~~0~0~0~~~~~~~----------|
D|-1~~~1~1~1~~~--------0~~~1~~~3~~~------------------------------------------|
A|-------------1~~~3~~~------------------------------------------------------|
E|---------------------------------------------------------------------------|
   1 + 2 + 3 + 4 + 1 + 2 + 3 + 4 + 1 + 2 + 3 + 4 + 1 + 2 + 3 + 4 +

G|-0~~~0~0~0~~~0~0~0~~~0~0~0~~~0~0~------------0~~~--------------------------|
D|-------------------------------------0~0~1~~~----3~~~1~~~0~~~--------------|
A|---------------------------------3~~~------------------------1~~~----------|
E|---------------------------------------------------------------------------|
   1 + 2 + 3 + 4 + 1 + 2 + 3 + 4 + 1 + 2 + 3 + 4 + 1 + 2 + 3 + 4 +

G|---------0~~~------------0~0~----------------------------------------------|
D|---------------------------------------------------------------------------|
A|-3~~~----------------------------3~~~~~~~~~~~~~~~3~~~----3~~~--------------|
E|---------------------------------------------------------------------------|
   1 + 2 + 3 + 4 + 1 + 2 + 3 + 4 + 1 + 2 + 3 + 4 + 1 + 2 + 3 + 4 +



| /  slide up
| \  slide down
| h  hammer-on
| p  pull-off
| ~  vibrato
| +  harmonic
| x  Mute note
===============================================================================
Добавлено: 22.06.2015
Другие материалы по этой песне:
  • Аккорды и текст

Страница создана 22.06.2015
http://primanota.ru/brian-balmages/midnight-madness-chords.htm
Привет, Гость.
Предлагаем пройти революционный курс по гитаре.
Подарок от PrimaNota.Ru, забирай!