PrimaNota.ru - самый крупный в мире бесплатный архив песенных текстов, аккордов, табулатур и нот


Brett Younker - Holy Mystery - таба, видео

Регистрация Запомнить меня
Войти через:  Facebook Google Twitter Vk Yandex Mail.ru

Brett Younker - Holy Mystery - таба, видео

Печатать
Просмотров: 79
capo 4
frets on the tab correspond with the frets as if there is no capo...so 12=12

verse 1 with delay

e|----14--11--9----9-11-9-7---14--11--7----------------------| repeat as
B|-12----------------------12--------------------------------|needed
G|-----------------------------------------------------------|
D|-----------------------------------------------------------|
A|-----------------------------------------------------------|
E|-----------------------------------------------------------|

verse 2 delay still on
i will...     caught up...  i worship you.  i worship you.......
e|---7---------6-----------------------------7---6---7-------| repeat as much
B|--7---------7--------------4--------------7---7---7--------|as you want
G|-----------6--------------4------------------6-------------|
D|-6--------4--------------6------------------4----6---------|
A|7-----------------------6---------------6-----------7------|
E|---------------------------------------7-------------------|

chorus

e|-----11--9-11-9-7--9--11-9-11-9-7----11--11-9-7-9--7-6-4---|repeat as
B|7H9-------------------------------7H9----------------------|needed
G|-----------------------------------------------------------|
D|-----------------------------------------------------------|
A|-----------------------------------------------------------|
E|-----------------------------------------------------------|

breakdown\ bridge i guess

e|----14------14------11------11-----------------------------|repeat as
B|--12--12--12--12--12--12--12-------------------------------|needed
G|13------13------13------13---------------------------------|
D|-----------------------------------------------------------|
A|-----------------------------------------------------------|
E|-----------------------------------------------------------|

the chords for the song are

Verse 1 (as many times needed)
C       G       D               Am
Lead me to a place of holy mystery
C       G               D
Lead me to Your heart

Verse 2 (as many times needed)
C
I will bow before Thee
D
Caught up in Your glory
    Em
I worship You
   G            D
I worship You
C
Throw myself before Thee
D
Overcome by glory
    Em
I worship You
   G         D
I worship You

Verse 1 (as many times needed)

Break down
C       Em      G

Verse 2 (as many times needed)

this is the way i play this song. i know it is not entirely perfect but i like the way 
it sounds. the reason i say repeat as much as needed is because when the holy spirit 
falls there's no telling how many times you will play a certain part.
Добавлено: 22.10.2013
Другие материалы по этой песне:
  • Аккорды и текст

Страница создана 22.10.2013
http://primanota.ru/brett-younker/holy-mystery-chords.htm
Привет, Гость.
Предлагаем пройти революционный курс по гитаре.
Подарок от PrimaNota.Ru, забирай!