PrimaNota.ru - самый крупный в мире бесплатный архив песенных текстов, аккордов, табулатур и нот


Brett Walker - Lecia - таба, видео

Регистрация Запомнить меня
Войти через:  Facebook Google Twitter Vk Yandex Mail.ru

Brett Walker - Lecia - таба, видео

Печатать
Просмотров: 99
Уроки эстрадного вокала в Санкт-Петербурге
-------------------------------------------------------------------------------
                             LECIA - Brett Walker
-------------------------------------------------------------------------------
Tabbed by:Beanboy

Tuning: standard
Link - http://www.heavyharmonies.com/cgi-bin/glamcd.cgi?BandNum=1629&CDName=Nevertheless
Video - http://www.youtube.com/watch?v=oAh813nszns&feature=related


Intro/verse

e|------------3---------------------------------------------------------------|
B|--2-3-2-3-3-3---------------------------------------------------------------|
G|--2-2-2-2-2-0---------------------------------------------------------------|
D|--2-2-2-2-2-0--x8-----------------------------------------------------------|
A|--0---0-----2---------------------------------------------------------------|
E|------------3---------------------------------------------------------------|

Pre-Chorus

e|--3--0--2--4----------------------------------------------------------------|
B|--3--2--3--5----------------------------------------------------------------|
G|--0--2--4--6----------------------------------------------------------------|
D|--0--2--4--6----------------------------------------------------------------|
A|--2--0--2--4----------------------------------------------------------------|
E|--3-------------------------------------------------------------------------|

Chorus

e|----------------------------------------------------3-----------------------|
B|--------------------------------------------------3-3-----------------------|
G|----.-----------------.------------.--------------0-0-----------------------|
D|--2-2-/5-0-4-5-4----2-2-----4----2-2-/5-0-4-5-4---2-0-----------------------|
A|--2-2------------5--2-2---5------2-2------------5-3-2-----------------------|
E|--0-0---------------0-0-7-----5--0-0----------------3-----------------------|

Intro/verse x8

Pre Chorus x1

Chorus x2

Guitar Solo

e|----------------------------------------------------------------------------|
B|------------------------------2---------------------------------------------|
G|--------7-------------------5-2---------------------------------------------|
D|--5-4-7-7-7------5---7-7-4--5-2---------------------------------------------|
A|--5-4-7-5-7--x2--5-5-5-0-2--3-0---------------------------------------------|
E|--3-2-5---5------3-3--------------------------------------------------------|

Break

e|--3-0-0---------------------------------------------------------------------|
B|--3-3-2---------------------------------------------------------------------|
G|--0-2-2--x3-5-6-------------------------------------------------------------|
D|--0-2-2-----5-6-------------------------------------------------------------|
A|--2---0-----3-4-------------------------------------------------------------|
E|--3-------------------------------------------------------------------------|

Chorus till end



| /   slide up
| \   slide down
| h   hammer-on
| p   pull-off
| ~   vibrato
| +   harmonic
| x   Mute note
| b   Bend
| pb  Pre-bend
| br  Bend release
| pbr Pre-bend release
| brb Bend release bend

************************************
Добавлено: 04.09.2013
Другие материалы по этой песне:
  • Аккорды и текст

Страница создана 04.09.2013
http://primanota.ru/brett-walker/lecia-chords.htm
Привет, Гость.
Предлагаем пройти революционный курс по гитаре.
Подарок от PrimaNota.Ru, забирай!