PrimaNota.ru - самый крупный в мире бесплатный архив песенных текстов, аккордов, табулатур и нот


Brett Dennen - Because You Are A Woman - таба, видео

Регистрация Запомнить меня
Войти через:  Facebook Google Twitter Vk Yandex Mail.ru

Brett Dennen - Because You Are A Woman - таба, видео

Печатать
Просмотров: 142
This is one of my favorite Brett Dennen songs and I was suprised there was no tabs out 
for it yet; so here goes...

Ohh yeh it sounds much better if you hammer on the bass note of every chord (from either 
open note, or from 2 notes down if it's voiced on the 5th string).


Verses / Part 1

    F#m                 Bm                  E        G#m/5-
     W                   W                   H        H
E||--2----------------|--2----------------|--------------------|
B||--2----------------|--3----------------|-----------3--------|
G||--2----------------|--4----------------|--1--------1--------|
D||--4----------------|--4----------------|--2--------0--------|
A||--4----------------|--2----------------|--2--------2--------|
E||--2----------------|-------------------|--------------------|


  A                   Bm       C#m         D
  W                   H        H           W
--0----------------|--2--------4--------|--5----------------|
--2----------------|--3--------5--------|--7----------------|
--2----------------|--4--------6--------|--7----------------|
--2----------------|--4--------6--------|--7----------------|
--0----------------|--2--------4--------|--5----------------|
-------------------|--------------------|-------------------|


  D/B      E           A
  H        H           W
--2-----------------|--0----------------|-------------------|
--3-----------------|--2----------------|-------------------|
--2--------1--------|--2----------------|-------------------|
--4--------2--------|--2----------------|-------------------|
--2--------2--------|--0----------------|-------------------|
--------------------|-------------------|-------------------|


Chorus / part 2

  A        C#m         Bm                  E        G#m/5-
  H        H           W                   H        H
-----------4--------|--2----------------|--------------------|
--2--------5--------|--3----------------|-----------3--------|
--2--------6--------|--4----------------|--1--------1--------|
--2--------6--------|--4----------------|--2--------0--------|
--0--------4--------|--2----------------|--2--------2--------|
--------------------|-------------------|--------------------|


  A                   Bm       C#m         Adim
  W                   H        H           W
--0----------------|--2--------4--------|-------------------|
--2----------------|--3--------5--------|--7----------------|
--2----------------|--4--------6--------|--5----------------|
--2----------------|--4--------6--------|--7----------------|
--0----------------|--2--------4--------|--6----------------|
-------------------|--------------------|-------------------|


  Bm       G#m/5-      A
  H        H           W
--2-----------------|-------------------||
--3-----------------|--2----------------||
--4--------1--------|--2----------------||
--4--------0--------|--2----------------||
--2--------2--------|--0----------------||
--------------------|-------------------||

Sorry, I didn't include the chorus, but it's just moving through the notes of the F# 
scale, mainly the pentatonic and blues notes. Will write in the solo on request though.


Duration Legend
---------------
W - whole
H - half
Добавлено: 08.04.2012
Другие материалы по этой песне:
  • Аккорды и текст

Страница создана 08.04.2012
http://primanota.ru/brett-dennen/because-you-are-a-woman-chords.htm
Привет, Гость.
Предлагаем пройти революционный курс по гитаре.
Подарок от PrimaNota.Ru, забирай!