PrimaNota.ru - самый крупный в мире бесплатный архив песенных текстов, аккордов, табулатур и нот


Brenton Brown - One Who Saves - таба, видео

Регистрация Запомнить меня
Войти через:  Facebook Google Twitter Vk Yandex Mail.ru

Brenton Brown - One Who Saves - таба, видео

Печатать
Просмотров: 33
-------------------------------------------------------------------------------
                           joyful joyful - brenton brown
-------------------------------------------------------------------------------
Tabbed by:
E-mail:
key of c
Tuning:E-A-D-G-B-e

e|---------------------------------------------------------------------------|
B|---------------------------------------------------------------------------|
G|------------0---0------------------------------------------------------0---|
D|--2--2----3-----0--3-2----0----------0-2----2---0---0----2-----2--3--------|
A|--3--3----3-3-----------------3---3----2----3------------3-----3--3----3---|
E|------------------------------0---------------------3----------------------|
   joyful joyful we adore thee God of glory Lord of Love hearts unfold like
e|---------------------------------------------------------------------------|
B|---------------------------------------------------------------------------|
G|---0-----------------------------------------------------------------------|
D|---0-----3--2---0-----------0--2---2---------------------------------------|
A|---------------------3--3------2---3---3-3---------------------------------|
E|---------------------0-----------------3-----------------------------------|
  flowers before the opening to the sun above
e|---------------------------------------------------------------------------|
B|-------1---0----------------1----1---0----------------1----1---0-----------|
G|-------0---0---2---2---0----0----0---0---2---2---0----0----0---0---2---2---|
D|---------------3---3---2-----------------3---3---2-----------------3---3---|
A|---------------------------------------------------------------------------|
E|---------------------------------------------------------------------------|
chorus: You are the one who saves You are the one who saves You are the one 
e|---------------------------------------------------------------------------|
B|--------1----1----1--1----0----0----1---0----------------1----1---0--------|
G|--0-----0----0----0--0----0----0----0---0---2----2----0--0----0---0---2--0-|
D|--2-----------------------------------------3----3----2---------------3--2-|
A|---------------------------------------------------------------------------|
E|---------------------------------------------------------------------------|
  whose hands lift us from the grave You are the light of life the everlasting
e|---------------------------------------------------------------------------|
B|-1---1---0----------------1----1---1----1--0-0-----------------------------|
G|-0---0---0---2---2---0----0----0---0----0--0-0-----------------------------|
D|-------------3---3---2-----------------------------------------------------|
A|---------------------------------------------------------------------------|
E|---------------------------------------------------------------------------|
  day You are the one who takes all our sins away
e|---------------------------------------------------------------------------|
B|------1-1---1---1---1---1-----0--0--0---0---1--3--1--1---1---1----1--1--1--|
G|---------------------------------------------------------------------------|
D|-----------------------------------------------0---------------------------|
A|------3-3---3---3---3---3-----2--2--2---2---3-----3--3---3---3----3--3--3--|
E|---------------------------------------------------------------------------|
bridge Jesus you are my rescue Jesus you are my rescue i give you everything 
e|---------------------------------------------------------------------------|
B|3--3-----------------------------------------------------------------------|
G|---------------------------------------------------------------------------|
D|0--0-----------------------------------------------------------------------|
A|---------------------------------------------------------------------------|
E|---------------------------------------------------------------------------|
  i am (repeat) (back to top)
e|---------------------------------------------------------------------------|
B|---------------------------------------------------------------------------|
G|---------------------------------------------------------------------------|
D|---------------------------------------------------------------------------|
A|---------------------------------------------------------------------------|
E|---------------------------------------------------------------------------|


************************************

| /   slide up
| \   slide down
| h   hammer-on
| p   pull-off
| ~   vibrato
| +   harmonic
| x   Mute note
| b   Bend
| pb  Pre-bend
| br  Bend release
| pbr Pre-bend release
| brb Bend release bend

************************************
Добавлено: 17.06.2016
Другие материалы по этой песне:
  • Аккорды и текст

Страница создана 17.06.2016
http://primanota.ru/brenton-brown/one-who-saves-chords.htm
Привет, Гость.
Предлагаем пройти революционный курс по гитаре.
Подарок от PrimaNota.Ru, забирай!