PrimaNota.ru - самый крупный в мире бесплатный архив песенных текстов, аккордов, табулатур и нот


Brent Walsh - A Toast - таба, видео

Регистрация Запомнить меня
Войти через:  Facebook Google Twitter Vk Yandex Mail.ru

Brent Walsh - A Toast - таба, видео

Печатать
Просмотров: 43
-------------------------------------------------------------------------------
                             A TOAST - Brent Walsh
-------------------------------------------------------------------------------
Tabbed by: Joe Cruz
E-mail: josruz161@yahoo.com

Sup folks, just got done tabbing my favorite track off Brent Walsh's debut solo album "7". Long time fan of
him and I The Mighty. Enjoy.

Tuning: Standard


e|----------------------------------------------------|
B|----------------------4-----------5-----------2-----|
G|----------9---------4-----------6-----------2-------|
D|----9-------9---4-----------6-----------2-----------|
A|--7-----7-----2-----------4-----------0-------------|
E|----------------------------------------------------|

e|----------------------------------------------------|
B|----------------------4-----------5-----------------|
G|----------9---------4-----------6-------2---2---2---|
D|----9-------9---4-----------6-----------------------|
A|--7-----7-----2-----------4-----------0---0---0-----|
E|----------------------------------------------------|

e|----------------------------------------------------|
B|----------------------4-----------5-----------2-----|
G|----------9---------4-----------6-----------2-------|
D|----9-------9---4-----------6-----------2-----------|
A|--7-----7-----2-----------4-----------0-------------|
E|----------------------------------------------------|

e|----------------------------------------------------|
B|----------------------4-----------5-----------------|
G|----------9---------4-----------6-------------------|
D|----9-------9---4-----------6-----------------------|
A|--7-----7-----2-----------4-------------------------|
E|-------------------------------------5\0------------|

e|----------------------------------------------------|
B|----------------------4-----------5-----------2-----|
G|----------9---------4-----------6-----------2-------|
D|----9-------9---4-----------6-----------2-----------|
A|--7-----7-----2-----------4-----------0-------------|
E|----------------------------------------------------|

e|----------------------------------------------------|
B|----------------------4-----------5-----------2-----|
G|----------9---------4-----------6-----------2-------|
D|----9-------9---4-----------6-----------2-----------|
A|--7-----7-----2-----------4-----------0-------------|
E|----------------------------------------------------|

e|------------------------------------------|
B|------------------------------------------|
G|------------------------------------------|
D|-----4-----------4---------0/4-2---4-2----|
A|-----------4-----------4---------0-----2--|
E|-0h2---0h2---0h2---0h2---0----------------|


e|---------------------------------------------------------------------------|
B|---------------------------------------------------------------------------|
G|---------------------------------------------------------------------------|
D|-2-2-2-2--4-4-4-4--7-7-7-7--9-9-9-9--2-2-2-2--4-4-4-4--7-7-7-7--999-9-9----|
A|-2-2-2-2--4-4-4-4--7-7-7-7--9-9-9-9--2-2-2-2--4-4-4-4--7-7-7-7--999-9-9----|
E|-0-0-0-0--2-2-2-2--5-5-5-5--7-7-7-7--0-0-0-0--2-2-2-2--5-5-5-5--777-7-7----|

e|---------------------------------------------------------------------------------------------------------|
B|---------------------------------------------------------------------------------------------------------|
G|-------------------------------------------------9-9-9-9-9-9---------------------------------------------|
D|-2-2-2-2-2-2-4-4-4-4-4-4-7-7-7-7-7-7-9-9-9-9-9-9-9-9-9-9-9-9-9-9-9-9-9-9-8-8-8-8-8-8-8-8-8-8-8-8-7-7-7-7-|
A|-2-2-2-2-2-2-4-4-4-4-4-4-7-7-7-7-7-7-9-9-9-9-9-9-7-7-7-7-7-7-9-9-9-9-9-9-8-8-8-8-8-8-8-8-8-8-8-8-7-7-7-7-|
E|-0-0-0-0-0-0-2-2-2-2-2-2-5-5-5-5-5-5-7-7-7-7-7-7-------------7-7-7-7-7-7-6-6-6-6-6-6-6-6-6-6-6-6-5-5-5-5-|

e|----------------------------------------------------|
B|----------------------4-----------5-----------------|
G|----------9---------4-----------6-------------------|
D|----9-------9---4-----------6-----------------------|
A|--7-----7-----2-----------4-------------------------|
E|-------------------------------------5\0------------|

e|----------------------------------------------------|
B|----------------------4-----------5-----------2-----|
G|----------9---------4-----------6-----------2-------|
D|----9-------9---4-----------6-----------2-----------|
A|--7-----7-----2-----------4-----------0-------------|
E|----------------------------------------------------|

e|----------------------------------------------------|
B|----------------------4-----------5-----------------|
G|----------9---------4-----------6-------2---2---2---|
D|----9-------9---4-----------6-----------------------|
A|--7-----7-----2-----------4-----------0---0---0-----|
E|----------------------------------------------------|

e|----------------------------------------------------|
B|----------------------4-----------5-----------2-----|
G|----------9---------4-----------6-----------2-------|
D|----9-------9---4-----------6-----------2-----------|
A|--7-----7-----2-----------4-----------0-------------|
E|----------------------------------------------------|

e|----------------------------------------------------|
B|----------------------4-----------5-----------2-----|
G|----------9---------4-----------6-----------2-------|
D|----9-------9---4-----------6-----------2-----------|
A|--7-----7-----2-----------4-----------0-------------|
E|----------------------------------------------------|

e|-----------------------------------------------------------------------------------------------------|
B|-----------------------------------------------------------------------------------------------------|
G|-------------------------------------------------------------------------4-2-1--2-2-2-2-2-2-2-2-2----|
D|---4---4-------7---7---7----6---6---6---4---4---4----4---4---4---4---4----------2-2-2-2-2-2-2-2-2----|
A|--------------------------------------------------------------------------------0-0-0-0-0-0-0-0-0----|
E|-2---2---2-4-5---5---5---/4---4---4---4---4---4---/2---2---2---2---2---2-----------------------------|

e|---------------------------------------------------------------------------|
B|---------------------------------------------------------------------------|
G|---------------------------------------------------------------------------|
D|-2-2-2-2--4-4-4-4--7-7-7-7--9-9-9-9--2-2-2-2--4-4-4-4--7-7-7-7--999-9-9----|
A|-2-2-2-2--4-4-4-4--7-7-7-7--9-9-9-9--2-2-2-2--4-4-4-4--7-7-7-7--999-9-9----|
E|-0-0-0-0--2-2-2-2--5-5-5-5--7-7-7-7--0-0-0-0--2-2-2-2--5-5-5-5--777-7-7----|

e|---------------------------------------------------------------------------------------------------------|
B|---------------------------------------------------------------------------------------------------------|
G|-------------------------------------------------9-9-9-9-9-9---------------------------------------------|
D|-2-2-2-2-2-2-4-4-4-4-4-4-7-7-7-7-7-7-9-9-9-9-9-9-9-9-9-9-9-9-9-9-9-9-9-9-8-8-8-8-8-8-8-8-8-8-8-8-7-7-7-7-|
A|-2-2-2-2-2-2-4-4-4-4-4-4-7-7-7-7-7-7-9-9-9-9-9-9-7-7-7-7-7-7-9-9-9-9-9-9-8-8-8-8-8-8-8-8-8-8-8-8-7-7-7-7-|
E|-0-0-0-0-0-0-2-2-2-2-2-2-5-5-5-5-5-5-7-7-7-7-7-7-------------7-7-7-7-7-7-6-6-6-6-6-6-6-6-6-6-6-6-5-5-5-5-|

                                                                  + Harmonic
e|----------------------------------------------------------------------|
B|----------------------------------------------------------------------|
G|----------4-4-4-4-----------------------------4-4-4-4-----------------|
D|-2-2-2-2--4-4-4-4--6-6-6-6--7-7-7-7--2-2-2-2--4-4-4-4--6-6-6-6--7-----|
A|-2-2-2-2--2-2-2-2--6-6-6-6--7-7-7-7--2-2-2-2--2-2-2-2--6-6-6-6--7-----|
E|-0-0-0-0-----------4-4-4-4--5-5-5-5--0-0-0-0-----------4-4-4-4--7-----|
                                                                  +

e|----------------------------------------------------------------------------|
B|----------------------------------------------------------------------------|
G|----------4-4-4-4-----------------------------4-4-4-4-----------------------|
D|-2-2-2-2--4-4-4-4--6-6-6-6--7-7-7-7--2-2-2-2--4-4-4-4--6-6-6-6--7-7-7-7-----|
A|-2-2-2-2--2-2-2-2--6-6-6-6--7-7-7-7--2-2-2-2--2-2-2-2--6-6-6-6--7-7-7-7-----|
E|-0-0-0-0-----------4-4-4-4--5-5-5-5--0-0-0-0-----------4-4-4-4--5-5-5-5-----|

                                                                              + Harmonic
e|--/12-11--9-------------------------------------------------------12-11-9--12---|
B|------------12-9-----9h10-9----9h10-9------------9-------------------------12---|
G|------------------11--------11--------11--9----9---9----11p9----9----------12---|
D|--------------------------------------------11-------11------11------------12---|
A|---------------------------------------------------------------------------12---|
E|--------------------------------------------------------------------------------|
                                                                             +

e|--12-----16-14-12/--4--7-7/9-------------------------------------------------------|
B|-----12------------------------9p7---9---7------------9h10--12b14r12b14r12~~~~~----|
G|-----------------------------9-----9---9---------9h11------------------------------|
D|--------------------------------------------9h11-----------------------------------|
A|-----------------------------------------------------------------------------------|
E|-----------------------------------------------------------------------------------|

The part right after the solo with the two guitars is a little out of my abilities at the moment. Only have
my acoustic and reaching the frets he's playing (19-21) just isn't possible.

e|----------------------------------------------------------------------------------------------------------|
B|-9--4--5-7-2---9--4--5-7-2--------------------------------------------------------------------------------|
G|-9--4--6-7-2---9--4--6-7-2---9\---4-4-4-----------------------------4-4--4-4-4----------------------------|
D|-9--4--6-7-2---9--4--6-7-2---9\---4-4-4----2---7-9---2-2-2-2-2-2-2--4-4--4-4-4--6-6-6-6-6-6-7-7-7-7-7-7---|
A|-7--2--4-5-0---7--2--4-5-0---7\---2-2-2----2---7-9---2-2-2-2-2-2-2--2-2--2-2-2--6-6-6-6-6-6-7-7-7-7-7-7---|
E|-------------------------------------------0---5-7---0-0-0-0-0-0-0--------------4-4-4-4-4-4-5-5-5-5-5-5---|

e|----------------------------------------------------------------------------------------------------|
B|----------------------------------------------------------------------------------------------------|
G|----------------------------------------------------------------------------------------------------|
D|-2-2-2-2-2-2-4-4-4-4-4-4-7-7-7-7-7-7-9-9-9-9-9-9-2-2-2-2-2-2-4-4-4-4-4-4-7-7-7-7-7-7-9-9-9-9-9-9----|
A|-2-2-2-2-2-2-4-4-4-4-4-4-7-7-7-7-7-7-9-9-9-9-9-9-2-2-2-2-2-2-4-4-4-4-4-4-7-7-7-7-7-7-9-9-9-9-9-9----|
E|-0-0-0-0-0-0-2-2-2-2-2-2-5-5-5-5-5-5-7-7-7-7-7-7-0-0-0-0-0-0-2-2-2-2-2-2-5-5-5-5-5-5-7-7-7-7-7-7----|x2


e|------------------------------------------------------------------------------------------------------12\-|
B|------------------------------------------------------------------------------------------------------12\-|
G|-------------------------------------9--9-9-----------------------------------------------------------13\-|
D|-2-2-2-2--4-4-4-4--7-7-7-7--9-9-9-9--9--9-9--9--9-9--8-8-8-8-8-8-7-7-7-7-7-7-8-8-8-8-8-8-7-7-7-7-7-7--14\-|
A|-2-2-2-2--4-4-4-4--7-7-7-7--9-9-9-9--7--7-7--9--9-9--8-8-8-8-8-8-7-7-7-7-7-7-8-8-8-8-8-8-7-7-7-7-7-7------|
E|-0-0-0-0--2-2-2-2--5-5-5-5--7-7-7-7----------7--7-7--6-6-6-6-6-6-5-5-5-5-5-5-6-6-6-6-6-6-5-5-5-5-5-5------|



************************************

| /   slide up
| \   slide down
| h   hammer-on
| p   pull-off
| ~   vibrato
| +   harmonic
| x   Mute note
| b   Bend
| pb  Pre-bend
| br  Bend release
| pbr Pre-bend release
| brb Bend release bend

************************************
Добавлено: 20.12.2015
Вам также может быть интересно:
Другие материалы по этой песне:
  • Аккорды и текст

Страница создана 20.12.2015
http://primanota.ru/brent-walsh/toast-chords.htm
Привет, Гость.
Предлагаем пройти революционный курс по гитаре.
Подарок от PrimaNota.Ru, забирай!