PrimaNota.ru - самый крупный в мире бесплатный архив песенных текстов, аккордов, табулатур и нот


Brent Walsh - Ride The Air - таба, видео

Регистрация Запомнить меня
Войти через:  Facebook Google Twitter Vk Yandex Mail.ru

Brent Walsh - Ride The Air - таба, видео

Печатать
Просмотров: 50
Brent Walsh - Ride The Air - Guitar tab
Tuning - Half-step down


VERSE 1
I wish I could travel like pollen...
D#|------------------------------------------------------------------|
A#|----5-----5----------------------5-------5---------5-------5------|
F#|----4-----4-------2------2-------4-------4---------4-------4------|
C#|------------------4------4----------------------------------------|
G#|------------------------------------------------------------------|
D#|--3-----3-------3------3-------3-------3-------3-------3----------|

Float my way to you on the breeze...
D#|----2------2--------2------2-------3-------3-------3------3-------|
A#|----3------3--------3------3-------5-------5-------5------5-------|
F#|------------------------------------------------------------------|
C#|------------------------------------------------------------------|
G#|------------------------------------------------------------------|
D#|--0-----0-------0------0-------0-------0-------0-------0----------|

And When the dawn is upon us...
D#|------------------------------------------------------------------|--------------|
A#|----5-----5----------------------5-------5---------5-------5------|--------------|
F#|----4-----4-------2------2-------4-------4---------4-------4------|--------------|
C#|------------------4------4----------------------------------------|--------------|
G#|------------------------------------------------------------------|--------------|
D#|--3-----3-------3------3-------3-------3-------3-------3----------|--3---5---7\--|

Float my way back home with ease.
D#|----2------2--------2------2-------3-------3-------3------3-------|
A#|----3------3--------3------3-------5-------5-------5------5-------|
F#|------------------------------------------------------------------|
C#|------------------------------------------------------------------|
G#|------------------------------------------------------------------|
D#|--0-----0-------0------0-------0-------0-------0-------0----------|

CHORUS
Three hundred miles...              Aint so far...
D#|------------------------------------------------------------------|
A#|----5-----5-------5------5-------7-----7-----8-------8\-----------|
F#|----5-----5-------5------5-------5-----5-----5-------5\-----------|
C#|------------------------------------------------------------------|
G#|--0----0------0------0------0------0------0------0----------------|
D#|------------------------------------------------------------------|

When there's no need for a car...
D#|----------------------------------5-------5---------------------------|
A#|----5-----5-------5-------5-------3-------3--------5----3h0-----------|
F#|----4-----4-------4------ 4------------------------0----0-------------|
C#|----------------------------------------------------------------------|
G#|----------------------------------------------------------------------|
D#|--3-----3-------2------2-------0-------0-------0-0----0---------------|

I'll just ride the air...
D#|------------------------------------------------------------------|
A#|----5-----5------5------5--------4------4---------4-------4-------|
F#|----0-----0------0------0--------0------0---------0-------0-------|
C#|------------------------------------------------------------------|
G#|--3-----3------3------3------3------3-------3--------3------------|
D#|------------------------------------------------------------------|

mmm...
D#|------------------------------------------------------------------|
A#|----5-----5-------5------5--------5--------5----------------------|
F#|----4-----4-------4------4--------4--------4----------------------|
C#|------------------------------------------------------------------|
G#|----------------------------------------------------2---0---------|
D#|--3-----3----2h3------3-------2h3------3------0h2h3---------------|


VERSE 2
SAME AS VERSE 1

CHORUS

BRIDGE
It's times like these...
*To Be continued*
Добавлено: 20.12.2015
Другие материалы по этой песне:
  • Аккорды и текст

Страница создана 20.12.2015
http://primanota.ru/brent-walsh/ride-air-chords.htm
Привет, Гость.
Предлагаем пройти революционный курс по гитаре.
Подарок от PrimaNota.Ru, забирай!