PrimaNota.ru - самый крупный в мире бесплатный архив песенных текстов, аккордов, табулатур и нот


Brent Walsh - Land Lovers - таба, видео

Регистрация Запомнить меня
Войти через:  Facebook Google Twitter Vk Yandex Mail.ru

Brent Walsh - Land Lovers - таба, видео

Печатать
Просмотров: 71
Уроки эстрадного вокала в Санкт-Петербурге
-------------------------------------------------------------------------------
                             SONG NAME - Band Name
-------------------------------------------------------------------------------
Tabbed by: WhatIzLife
E-mail: whatizlife@live.com

Tuning: Capo 3rd fret


Intro:

e|-------1-----------1-----------1-----------1-------------------------------|
B|-----1---1-------1---1-------1---1-------1---1-----------------------------|
G|---2-------2---2-----------2-------2---2-------2---------------------------|
D|-3-----------3---------2h3-----------3-----------3-------------------------|
A|---------------------------------------------------------------------------|
E|---------------------------------------------------------------------------|

Verse:

e|-------1-----------1-----------1-----------1-------------------------------|
B|-----1---1-------1---1-------3---3-------3---3-----------------------------|
G|---2-------2---2-------2---2-------2---2-------2 --------------------------|
D|-3-----------2-----------0-----------0-------------------------------------|
A|---------------------------------------------------------------------------|
E|---------------------------------------------------------------------------|
  
e|---------------------------------------------------------------------------|
B|-------3-----------3-----------5------------5------------------------------|
G|-----3---3-------3---3-------5---5--------5---5----------------------------|
D|---3-------3---3-------3---5-------5----5-------5--------------------------|
A|-1-----------1-----------3------------3------------------------------------|
E|---------------------------------------------------------------------------|

e|-------1-----------1-----------1-----------1-------------------------------|
B|-----1---1-------1---1-------3---3-------3---3-----------------------------|
G|---2-------2---2-------2---2-------2---2-------2 --------------------------|
D|-3-----------2-----------0-----------0-------------------------------------|
A|---------------------------------------------------------------------------|
E|---------------------------------------------------------------------------|

e|---------------------------------------------------------------------------|
B|-------3-----------3-----------5-------------------------------------------|
G|-----3---3-------3---3-------5---5--------5-----6--------------------------|
D|---3-------3---3-------3---5-------5----5-----5----------------------------|
A|-1-----------1-----------3------------3-----4------------------------------|
E|---------------------------------------------------------------------------|

e|-------1-----------1-------------------------------------------------------|
B|-----3---3-------1---1---------3-------------------------------------------|
G|---2-------2---2-------2-----3---3-----------------------------------------|
D|-0-----------3-------------3-------3---------------------------------------|
A|-------------------------1-------------------------------------------------|
E|---------------------------------------------------------------------------|

e|-------3-----------3-----------3-----------3-------------------------------|
B|-----3---3-------3---3-------3---3-------3---3-----------------------------|
G|---4-------4---4-------4---4-------4---4-------4---------------------------|
D|-5-----------5-----------5-----------5-------------------------------------|
A|---------------------------------------------------------------------------|
E|---------------------------------------------------------------------------|

e|-------1-----------1-----------1---------------------------------------------|
B|-----1---1-------1---1-------3---3----------2-----------3------------3-------|
G|---2-------2---2-------2---2-------2------2---2-------3---3--------3---3-----|
D|-3-----------2-----------0--------------2-------2---3-------3---3--------3---|
A|--------------------------------------0-----------1-----------1------------3-|
E|-----------------------------------------------------------------------------|

e|-------1-----------1-----------1---------------------------------------------|
B|-----1---1-------1---1-------3---3----------2-----------3------------3-------|
G|---2-------2---2-------2---2-------2------2---2-------3---3--------3---3-----|
D|-3-----------2-----------0--------------2-------2---3-------3---3--------3---|
A|--------------------------------------0-----------1-----------1------------3-|
E|-----------------------------------------------------------------------------|

[Intro]

[Verse]

Bridge: 

e|---------------------------------------------------------------------------|
B|---------------------------------------------------------------------------|
G|---------------------------------------------------------------------------|
D|---------------------------------------------------------------------------|
A|-1-2-3-4-------------------------------------------------------------------|
E|---------------------------------------------------------------------------|

e|---------------------------------------------------------------------------|
B|---------------------------------------------------------------------------|
G|------0---------0---------0---------0--------------------------------------|
D|----3---3-----3---3-----3---3-----3---3------------------------------------|X3
A|--5-------5-4-------4-3-------3-2-------2-3-4------------------------------|
E|---------------------------------------------------------------------------|

e|----------------------------------------1~--1~-----------------------------|
B|----------------------------------------3~--2~-----------------------------|
G|------0---------0---------0---------0---3~--3~-----------------------------|
D|----3---3-----3---3-----3---3-----3---3-3~--3~-----------------------------|
A|--5-------5-4-------4-3-------3-2-------1~--1~-----------------------------|
E|---------------------------------------------------------------------------|

[Intro]

[Verse]


************************************

| /   slide up
| \   slide down
| h   hammer-on
| p   pull-off
| ~   let ring
| +   harmonic
| x   Mute note
| b   Bend
| pb  Pre-bend
| br  Bend release
| pbr Pre-bend release
| brb Bend release bend

************************************
Добавлено: 14.10.2014
Другие материалы по этой песне:
  • Аккорды и текст

Страница создана 14.10.2014
http://primanota.ru/brent-walsh/land-lovers-chords.htm
Привет, Гость.
Предлагаем пройти революционный курс по гитаре.
Подарок от PrimaNota.Ru, забирай!