PrimaNota.ru - самый крупный в мире бесплатный архив песенных текстов, аккордов, табулатур и нот


Brent Mason - Hot Wired - таба, видео

Регистрация Запомнить меня
Войти через:  Facebook Google Twitter Vk Yandex Mail.ru

Brent Mason - Hot Wired - таба, видео

Печатать
Просмотров: 62
Title: Hot Wired
Artist: Brent Mason
Copyright: David Price
Tempo = 140
Track 1

Legend
L - tied note
x - dead note
h - hammer on/pull off
b - bend
s - slide
~ - vibrato
g - ghost note
> - accentuated note
t - trill
M - palm mute
. - staccato
P - popping (bass)
S - slapping (bass)
+ - tapping
W - wide vibrato
< - fade in
w - whammy bar
= - tremolo picking
v - brush up
^ - brush down
V - pick stroke up
n - pick stroke down


E |----------------------------------------------------|
B |----------------------------------------------------|
G |----------------------------------------------------|
D |----------------------------------------------------|
A |----------------------------------------------------|
E |-----------------------------------------0--3b------|


----------------------------------------------------|
----------------------------------------------------|
--------2h-0-----5h-0-----7h-0-----6h-0-----5-------|
--------2h-0-----5h-0-----7h-0-----5h-0-----4-------|
--0-----------0--------0--------0--------0----------|
----------------------------------------------------|


----------------------------------------------------|
----------------------------------------------------|
--------2h-0-----5h-0-----5-----4--------0----------|
--------2h-0-----5h-0-----3-----3-------------------|
--0-----------0--------------------5s-7-----3b------|
-----------------------3-----3----------------------|


----------------------------------------------------|
----------------------------------------------------|
--------2h-0-----5h-0-----7h-0-----6h-0-----5-------|
--------2h-0-----5h-0-----7h-0-----5h-0-----4-------|
--0-----------0--------0--------0--------0----------|
----------------------------------------------------|


----------------------------------------------------|
--------------------------3-----------3-------------|
--------2h-0-----5h-0-----0-----------2-------------|
--------2h-0-----5h-0-----------------0-------------|
--0-----------0-------------------------------------|
-----------------------3----------------------------|


--5-----0--------------------0----------------------|
-----8-----4s-3--------3h-4-----2s------------------|
-----------------5s-6-----------------2h-0-----2h---|
--------------------------------------------2-------|
----------------------------------------------------|
----------------------------------------------------|


--------------------------------------------------------------------------------|
--------------------------------------------------------------------------------|
--0-----------------0-----------------------------------------------------------|
-----------2-----------------2--------1-----------------0-----------------------|
-----------------------------------------------3-----------------3s-------4-----|
--------------------------------------------------------------------------------|


--------------------------------------------------------------------|
--------------------------------------------------------------------|
---------------------0----------------------------------------------|
---2--------4-----------------4h----2h----0-------------------------|
------------------------------------------------3-------------------|
--------------------------------------------------------------------|


----------------------------------------------------|
----------------------------------------------------|
--------2h-0-----2h-0-----2-----2L----2-------------|
--------2h-0-----2h-0-----2-----2L----2-------------|
--0-----------0--------0----------------------------|
-----------------------------------------0--3b------|


----------------------------------------------------|
----------------------------------------------------|
--------2h-0-----2h-0-----5-------------------------|
--------2h-0-----2h-0-----5-------------------------|
--0-----------0--------0----------------------------|
----------------------------------------------------|


--5-----0--------------------0----------------------|
-----8-----4s-3--------3h-4-----2s------------------|
-----------------5s-6-----------------2h-0-----2h---|
--------------------------------------------2-------|
----------------------------------------------------|
----------------------------------------------------|


--------------------------------------------------------------------------------|
--------------------------------------------------------------------------------|
--0-----------------0-----------------------------------------------------------|
-----------2-----------------2--------1-----------------0-----------------------|
-----------------------------------------------3-----------------3s-------4-----|
--------------------------------------------------------------------------------|


--------------------------------------------------------------------|
--------------------------------------------------------------------|
---------------------0----------------------------------------------|
---2--------4-----------------4h----2h----0-------------------------|
------------------------------------------------3-------------------|
--------------------------------------------------------------------|


----------------------------------------------------|
----------------------------------------------------|
--------2h-0-----2h-0-----2-----2L----2-------------|
--------2h-0-----2h-0-----2-----2L----2-------------|
--0-----------0--------0----------------------------|
-----------------------------------------0--3b------|


----------------------------------------------------|
----------------------------------------------------|
--------2h-0-----4b-------4b------------------------|
--------2h-0-----5--------5-------------------------|
--0-----------0-------------------------------------|
----------------------------------------------------|


----------------------------------------------------|
----------------------------------------------------|
--------------------------------0-----0-------------|
--------0-----0--2--0--------4-----4-----4--2h-0----|
-----3-----3-----------3--5-------------------------|
--2-------------------------------------------------|


----------------------------------------------------|
----------------------------------------------------|
--------------------------------0-----0-------------|
--------0-----0--2--0--------4-----4-----4--2h-0----|
-----3-----3-----------3--5-------------------------|
--2-------------------------------------------------|


--------------------------------------------------------------------------------|
-----------2h-------0-----------------0-----------------------------------------|
-----------2h-------0-----------------0-----------------------------------------|
-----------------------------4-----------------4h-------2-----------------0-----|
--4--------------------------------------------------------------4--------------|
--------------------------------------------------------------------------------|


--------------------------------------------------------------------|
--------------------------------------------------------------------|
--------------------------------------------------------------------|
---------------------2----------------------------------------------|
---3--------4-----------------3h----2h----0-------------------------|
------------------------------------------------3-------------------|


----------------------------------------------------|
----------------------------------------------------|
--------2h-0-----2h-0-----2.----2L----2-------------|
--------2h-0-----2h-0-----2.----2L----2-------------|
--0-----------0--------0----------------------------|
----------------------------------------------------|


----------------------------------------------------|
----------------------------------------------------|
--------2--------2--------2--------2--------2-------|
--------1h-0-----1h-0-----1h-0-----1h-0-----1-------|
----------------------------------------------------|
--1-----------1--------1--------1--------1----------|


----------------------------------------------------|
----------------------------------------------------|
--------4--------4--------4--------4L-4-------------|
--------3h-0-----3h-0-----3h-0-----3L-3-------------|
----------------------------------------------------|
--3-----------3--------3--------3-------------------|


--5-----0--------------------0----------------------|
-----8-----4s-3--------3h-4-----2s------------------|
-----------------5s-6-----------------2h-0-----2h---|
--------------------------------------------2-------|
----------------------------------------------------|
----------------------------------------------------|


--------------------------------------------------------------------------------|
--------------------------------------------------------------------------------|
--0-----------------0-----------------------------------------------------------|
-----------2-----------------2--------1-----------------0-----------------------|
-----------------------------------------------3-----------------3s-------4-----|
--------------------------------------------------------------------------------|


--------------------------------------------------------------------|
--------------------------------------------------------------------|
---------------------0----------------------------------------------|
---2--------4-----------------4h----2h----0-------------------------|
------------------------------------------------3h----0-------------|
--------------------------------------------------------------------|


----------------------------------------------------|
----------------------------------------------------|
--------2h-0-----5h-0-----7h-0-----6h-0-----5-------|
--------2h-0-----5h-0-----7h-0-----5h-0-----4-------|
--0-----------0--------0--------0--------0----------|
----------------------------------------------------|


----------------------------------------------------|
----------------------------------------------------|
--------2h-0-----5h-0-----5-----4--------0----------|
--------2h-0-----5h-0-----3-----3-------------------|
--0-----------0--------------------5s-7-----3b------|
-----------------------3-----3----------------------|


----------------------------------------------------|
----------------------------------------------------|
--------2h-0-----5h-0-----7h-0-----6h-0-----5-------|
--------2h-0-----5h-0-----7h-0-----5h-0-----4-------|
--0-----------0--------0--------0--------0----------|
----------------------------------------------------|


-----------------------------------------------0----|
-----------------------------------------1--2-------|
-----------------------------1s-2--3s-4-------------|
-----------------1s-2--3--4-------------------------|
--0-----0--3s-4-------------------------------------|
----------------------------------------------------|


--------------------------------2-------------------|
----------------------------------------------------|
--4b----------------------------------4b----2--4b---|
----------------------------------------------------|
----------------------------------------------------|
----------------------------------------------------|


----------------------------------------------------|
--------------------------------------------12L-----|
--------2L----2L----------2-------------------------|
-----4----------------------------------------------|
----------------------------------------------------|
----------------------------------------------------|


--------14.---12------------------------------------|
--12b------------12b---10----10s8-----7-------------|
--------------------------11-------9-----9--8--7----|
----------------------------------------------------|
----------------------------------------------------|
----------------------------------------------------|


----------------------------------------------------|
----------------------------------------------------|
--5s-6-----0-----------------------2h-0-----2-------|
--------7-----2--1--0--------2--4--------4-----4----|
-----------------------3s-4-------------------------|
----------------------------------------------------|


----------------------------------------------------|
--1-----1--------1--------1-----1--------1----------|
--2h-0--2h-0-----2h-0-----2-----2h-0-----2h-0-------|
--------------4--------4-----4--------4--------0----|
----------------------------------------------------|
----------------------------------------------------|


----------------------------------------------------|
--7-----7--------7--------7-----7--------7----------|
--5-----5h-0-----5h-0-----5-----5h-0-----5----------|
-----0--------7--------7-----7--------7--------5s---|
----------------------------------------------------|
----------------------------------------------------|


----------------------------------------------------|
-----5--------3-----2-------------------------------|
-----6h-0-----4-----2h-0--2-----------0-------------|
--7--------5-----5--------2--1h-0-----0--------2----|
-----------------------------------3-----3h-4-------|
----------------------------------------------------|


--------------5-----------------9-----------12------|
----------------------------------------------------|
-----2--4b----------8L----8b-------11L11b------12L--|
--4-------------------------------------------------|
----------------------------------------------------|
----------------------------------------------------|


--------------------13----------------11----------------------------------------|
-----------------------------------------------13b---------------11-------------|
--12b---------------------------------------------------------------------13s---|
--------------------------------------------------------------------------------|
--------------------------------------------------------------------------------|
--------------------------------------------------------------------------------|


--------------------------------------------------------------------|
--------------------------------------------------------------------|
12h---10-------------10-------8-----------------8-------------------|
------------12-------------------------10----------------7s---------|
--------------------------------------------------------------------|
--------------------------------------------------------------------|


-----7--------5--------3L-3-------------------------|
-----8--------6--------3L-3-----5-----3--------0s---|
--------------------------------5-----3h-4----------|
--9--------7-----------------0-----5-----------0s---|
----------------------------------------------------|
----------------------------------------------------|


-----5--------5-----5-------------------------------|
--5-----------4-----3-----7-----5-------------------|
--------------------------7-----5h-6-----6----------|
--5--------4-----4-----x-----7-----------7----------|
-----------------------------------------------x----|
----------------------------------------------------|


--------------------------------------------------------------------------------|
--------------------------------------------------------------------------------|
--4-----------------2-----------------2-----------------2-----------------2-----|
--5-----------------4-----------------2-----------------1-----------------0-----|
-----------0-----------------0-----------------0-----------------0--------------|
--------------------------------------------------------------------------------|


--------------------------------------------------------------------|-------|
--------------------------------------------------------------------|-------|
--------------------------------------------------------------------|-------|
---------------------2----------------------------------------------|-------|
---3--------4-----------------3-----2-----0-------------------------|-------|
------------------------------------------------3--------1L---------|--1b---|


-------|
-------|
-------|
-------|
-------|
-------|


--------------------------------------------------------------------------------|
--------------------------------------------------------------------------------|
--------------------------------------------------------------------------------|
--------------------------------------------------------------------------------|
--------------------------------------------------------------------------------|
--------------------------------------------------------------------------------|


--------|----------------------------------------------------|
--------|----------------------------------------------------|
--------|-----------5h-4--------------------------4--7--4----|
--------|-----4--7--------7s-6-----4-----4--6s-7-------------|
---4s---|--5--------------------6-----6----------------------|
--------|----------------------------------------------------|


--------------4-----7-----5-----------------------8-----------6-----8h-6s-5-----|
--------5-----------------------5-----------------------------------------------|
--5-----------------------------------5-----------------------------------------|
--------------------------------------------------------------------------------|
--------------------------------------------------------------------------------|
--------------------------------------------------------------------------------|


--------------------|----------------------------------------------------|
8-----7-----6-------|--5-------------------------------------------------|
--------------------|-----7--5s-6-----0--------------------2h-0--3h-0----|
--------------------|--------------7-----2--1h-0-------------------------|
--------------------|-----------------------------2s-4-------------------|
--------------------|----------------------------------------------------|


----------------------------------------------------|
----------------------------------------------------|
--4h-0-----------------4--6h-4--7h-4--8h-5-----8s---|
--------------------5-----------------------7-------|
--------7--5--4--7----------------------------------|
----------------------------------------------------|


----------------------------------------------------|
----------------------------------------------------|
--9-----7--5--7s----5-----5s------------------------|
-----------------------7--------5--7--7s----5--7----|
----------------------------------------------------|
----------------------------------------------------|


--------------------5-------------------------------|
--------------7b------------------------------------|
--4s-5--------7b-------7L-7b----5-----7--5----------|
--------7--5-----------------------6--------7-------|
----------------------------------------------------|
----------------------------------------------------|


-----------------------------------------5h-0-------|
--------------------------5--------------------8----|
--5b-------------------------8s-7--5s-6-------------|
--------7--6--5-------------------------------------|
----------------------------------------------------|
----------------------------------------------------|


--0-------------------------------------------------|
-----------0----------------------------------------|
-----8s-7-----5h-6-----------------------------2----|
--------------------7h-5-----------------2--4-------|
--------------------------7--6h-5--3s-4-------------|
----------------------------------------------------|


--------------------------------------------------------------------------------|
--1h-------0--------------------------------------------------------------------|
--------------------3--------1s-------2-----------------------------------------|
-----------------------------------------------3--------1-----------------------|
-----------------------------------------------------------------3--------2-----|
--------------------------------------------------------------------------------|


--------------------------------------------------------------------|
--------------------------------------------------------------------|
--------------------------------------------------------------------|
------------------------------------------------3-------------------|
---1--------------------0-----3--------5----------------------------|
------------3s----4--------------------------------------2s---------|


--------------------------------------------3-------|
--------------------------------0--------6----------|
--------------------0--------2-----5s-7--------7s---|
--------0--------3-----2s-3-------------------------|
-----2-----4s-5-------------------------------------|
--3-------------------------------------------------|


--------5-----5--------5L-5-----5--------5-----5----|
-----8--------8--------8L-8-----8--------8-----8----|
--9--------9--------9--------9--------9-------------|
----------------------------------------------------|
----------------------------------------------------|
----------------------------------------------------|


-----5----------------------------------------------|-------|
-----8--------------7-----5b------------------------|-------|
--9--------9s-7-----7-----5b-------------5s-2-------|-------|
-----------------x-----7--------7h-5----------------|-------|
--------------------------------------7-------------|-------|
----------------------------------------------------|-------|


----------------------------|
----------------------------|
----------------------------|
-----------------------4s---|
----------------------------|
----------------------------|


--14----14----12----12----10----10----8-------------|
--15----15----13----13----12----12----10-------8s---|
-----------------------------------------------9s---|
-----16----------14----------0----------------------|
----------------------------------------------------|
----------------------------------------------------|


----------------------------------------------------|-------|
--10----8-----7--------4s-5-----3-----1-------------|-------|
--11----9-----7--------4s-5-----4-----2-------------|-------|
-----0-----------------------0----------------------|-------|
----------------------------------------------------|-------|
----------------------------------------------------|-------|


-------------------------------------|
-------------------------------------|
-------------------------------------|
-------------------------------------|
-------------------------------------|
--------------------------------1s---|


----------------------------------------------------|
--------------------------------------0--1h-0-------|
-----------------------------------2-----------2h---|
-----------------1h-2-----0--3s-4-------------------|
-----------2--3--------3----------------------------|
--2--3--4-------------------------------------------|


--------------------------------------------------------------------------------|
-----------------------------------------------------------------1h-------0-----|
--1-----------------0--------------------------1--------2-----------------------|
-----------3-----------------3s-------4-----------------------------------------|
--------------------------------------------------------------------------------|
--------------------------------------------------------------------------------|


---------------------------------------3----------------------------|-------|
------------0--------3s-------5-----------------5h----3h----0-------|-------|
---2----------------------------------------------------------------|--2----|
--------------------------------------------------------------------|-------|
--------------------------------------------------------------------|-------|
--------------------------------------------------------------------|-------|


-------|
-------|
-------|
-------|
-------|
-------|


----------------------------------------------------------------------------|
----------------------------------------------------------------------------|
--------------------------------------------------------5-------------------|
--------------------------------------3--------x--x--x-----------x--x--x----|
--------------------3--------x--x--x----------------------------------------|
--1--------x--x--x----------------------------------------------------------|


--------------------------------------------------------------------------------|
--------------------------------------8--------------------------10L------10b---|
--7-----------------x-----x-----x-----------------------------------------------|
--------------------------------------------------------------------------------|
--------------------------------------------------------------------------------|
--------------------------------------------------------------------------------|


---10----------------------------------------------------9L---------|
------------10b---------------8--------------------------10L--------|
--------------------------------------------------------------------|
--------------------------------------------------------------------|
--------------------------------------------------------------------|
--------------------------------------------------------------------|


--9--9--------7-------------------------------------|
--10-10-------8--------8L-8-----7-----5-------------|
-----------------------9L-9-----7-----5b-------6L---|
-----------x--------x--------x-----------------7L---|
--------------------------------------------0-------|
----------------------------------------------------|


----------------------------------------------------|
----------------------------------------------------|
--6-----4-----2--------2-----2----------------------|
--7-----5-----4--------2-----1h-0-----0-------------|
-----0-----0--------0--------------3-----3----------|
--------------------------------------------3s-4----|


----------------------------------------------------|
----------------------------------------------------|
--------4s-6-----5--------4-------------------------|
--------5s-7-----6--------5-------------------------|
--0-------------------------------------------------|
----------------------------------------------------|


----------------------------------------------------|
----------------------------------------------------|
--------------------------------0-----0-------------|
--------0-----0--2--0--------4-----4-----4--2h-0----|
-----3-----3-----------3--5-------------------------|
--2-------------------------------------------------|


----------------------------------------------------|
----------------------------------------------------|
--------------------------------0-----0-------------|
--------0-----0--2--0--------4-----4-----4--2h-0----|
-----3-----3-----------3--5-------------------------|
--2-------------------------------------------------|


--------------------------------------------------------------------------------|
-----------2h-------0-----------------0-----------------------------------------|
-----------2h-------0-----------------0-----------------------------------------|
-----------------------------4-----------------4h-------2-----------------0-----|
--4--------------------------------------------------------------4--------------|
--------------------------------------------------------------------------------|


--------------------------------------------------------------------|
--------------------------------------------------------------------|
--------------------------------------------------------------------|
---------------------2----------------------------------------------|
---3--------4-----------------3h----2h----0-------------------------|
------------------------------------------------3-------------------|


----------------------------------------------------|
----------------------------------------------------|
--------2h-0-----2h-0-----2.----2L----2-------------|
--------2h-0-----2h-0-----2.----2L----2-------------|
--0-----------0--------0----------------------------|
----------------------------------------------------|


----------------------------------------------------|
----------------------------------------------------|
--------2--------2--------2--------2--------2-------|
--------1h-0-----1h-0-----1h-0-----1h-0-----1-------|
----------------------------------------------------|
--1-----------1--------1--------1--------1----------|


----------------------------------------------------|
----------------------------------------------------|
--------4--------4--------4--------4L-4-------------|
--------3h-0-----3h-0-----3h-0-----3L-3-------------|
----------------------------------------------------|
--3-----------3--------3--------3-------------------|


----------------------------------------------------|
--------2-----2-----------2-----0-----------2-------|
--------0-----0-----------2-----0-----------0-------|
--2h-4-----4-----4h-2h-4-----4-----4h-2h-4-----4----|
----------------------------------------------------|
----------------------------------------------------|


----------------------------------------------------|
--2-----------2-----0-----------2-----2-------------|
--0-----------2-----0-----------0-----0-------------|
-----4h-2h-4-----4-----4h-2h-4-----4-----4--2h-0----|
----------------------------------------------------|
----------------------------------------------------|


----------------------------------------------------|
----------------------------------------------------|
--------2--------2--------2--------2--------2-------|
--------1h-0-----1h-0-----1h-0-----1h-0-----1-------|
----------------------------------------------------|
--1-----------1--------1--------1--------1----------|


----------------------------------------------------|
----------------------------------------------------|
--------4--------4--------4--------4L-4-------------|
--------3h-0-----3h-0-----3h-0-----3L-3-------------|
----------------------------------------------------|
--3-----------3--------3--------3-------------------|


--5-----0--------------------0----------------------|
-----8-----4s-3--------3h-4-----2s------------------|
-----------------5s-6-----------------2h-0-----2h---|
--------------------------------------------2-------|
----------------------------------------------------|
----------------------------------------------------|


--------------------------------------------------------------------------------|
--------------------------------------------------------------------------------|
--0-----------------0-----------------------------------------------------------|
-----------2-----------------2--------1-----------------0-----------------------|
-----------------------------------------------3-----------------3s-------4-----|
--------------------------------------------------------------------------------|


--------------------------------------------------------------------|
--------------------------------------------------------------------|
---------------------0----------------------------------------------|
---2--------4-----------------4h----2h----0-------------------------|
------------------------------------------------3-------------------|
--------------------------------------------------------------------|


----------------------------------------|
----------------------------------------|
--2-------------------------------------|
--2-------------------------------------|
--0.------------------------------------|
----------------------------------------|


----------------------------------------------------------------------------|
----------------------------------------------------------------------------|
--------------------------------------------------------------------5--7----|
--------------------------------------------------5--7--------5--7----------|
--------------------------------------------5--7--------5--7----------------|
--------------------------------------5--8----------------------------------|


--------------------------------------------------------------5-----------------|
--------------------------------------------------5-----------------------8h----|
--------------------5--------7L-------7b----------------------------------------|
--5--------7--------------------------------------------------------------------|
--------------------------------------------------------------------------------|
--------------------------------------------------------------------------------|


------------------5-------------------------------------------------|
------5-------------------------------------------------------------|
------------------7.----------------------------7-------------------|
--------------------------------------------------------------------|
--------------------------------------------------------------------|
--------------------------------------------------------------------|


--------------------------------------------------------------------------------|
--------------7-----5-----------------------------------------------------------|
--5-----------7-----5-----------------------------------------------------------|
--------7-----------------7h-5--------5-----------------------------------------|
--------------------------------7-----------------3s----0-----3L----------------|
--------------------------------------------------------------------------------|


------------------------------------12s-----------||
------------------------------------12s-----------||
------------------------------------12s-----------||
------------------------------------11s-----------||
------3s----------------------12----12s-----------||
--------------------------------------------------||
Добавлено: 12.08.2013
Другие материалы по этой песне:

Страница создана 03.03.2012
http://primanota.ru/brent-mason/hot-wired-chords.htm
Привет, Гость.
Предлагаем пройти революционный курс по гитаре.
Подарок от PrimaNota.Ru, забирай!