PrimaNota.ru - самый крупный в мире бесплатный архив песенных текстов, аккордов, табулатур и нот


Brendan Benson - Eventually - текст песни, таба, видео

Регистрация Запомнить меня
Войти через:  Facebook Google Twitter Vk Yandex Mail.ru

Brendan Benson - Eventually - текст песни, таба, видео

Печатать
Просмотров: 199
Новый альбом группы 'Черный Кузнец' по культовому сериалу 'Сверхъестественное'!
-------------------------------------------------------------------------------
                             eventually - Brendan Benson
-------------------------------------------------------------------------------
Tabbed by: johnhadysnki
E-mail: johnhadynski@gmail.com

Tuning: standard

e|---------------------------------------------8---|
B|-10-10-10-10/8-7-8-7-8p7-8h10-8--------------10--|
G|--------------------------------7-----7/9----9---|
D|----------------------------------7--------------|
A|------------------------------------9------------|
E|-------------------------------------------------|
im not sure about the little things between chords. they are hard to hear
e|-10--------------------------------------|
B|-8---------------------------------------|
G|-7---9/7---7/9------10-9-10-9-10-9-------|
D|-9-------7-------------------------10-9--|
A|-----------------------------------------|
E|-----------------------------------------|
                              then just pluck around this chord a few times
e|-10-------------------------10--|
B|-8----7/8/7---7-10/12/10----7---|
G|-7----------7---------------7---|
D|-9--------------------------9---|
A|--------------------------------|
E|--------------------------------|
chorus pluck around with these chords I think,  then just chords strummed but broken up
e|------------------------------------------------------------|
B|------------------------------------------------------------|
G|--6---4---11------------------------------------------------|
D|--7---5---12------------------------------------------------|
A|--7---5---12------------------------------------------------|
E---5---3---10------------------------------------------------|
then back to improv between the verse chords.
then a bridge after going back around once and a lot more of single note improving
e|-------------------------------------------------------------------------------------|
B|-------------------------------------------------------------------------------------|
G|-6---10-10/14------------------------------------------------------------------------|
D|-7-----------------------------------------------------------------------------------|
A|-7-----------------------------------------------------------------------------------|
E|-5-----------------------------------------------------------------------------------|
a little it from the single note stuff on the outro with some sliding imrov there too
e|--------------------9-9-9-------------------------------------------------------------|
B|--------------------9-9-9-------------------------------------------------------------|
G|--------------------9-9-9-------------------------------------------------------------|
D|---7p5-7p5-7p5------------------------------------------------------------------------|
A|---------------7----------------------------------------------------------------------|
E|--------------------------------------------------------------------------------------|
end on
e|-9-----------------------------------------------------------------------------|
B|-9-----------------------------------------------------------------------------|
G|-9-----------------------------------------------------------------------------|
D|-11----------------------------------------------------------------------------|
A|-11----------------------------------------------------------------------------|
E|-------------------------------------------------------------------------------|

e|---------------------------------------------------------------------------|
B|---------------------------------------------------------------------------|
G|---------------------------------------------------------------------------|
D|---------------------------------------------------------------------------|
A|---------------------------------------------------------------------------|
E|---------------------------------------------------------------------------|
I really like the song but it is hard to do.  please suggest ways to make it better!

************************************

| /   slide up
| \   slide down
| h   hammer-on
| p   pull-off
| ~   vibrato
| +   harmonic
| x   Mute note
| b   Bend
| pb  Pre-bend
| br  Bend release
| pbr Pre-bend release
| brb Bend release bend

************************************
Добавлено: 01.08.2014
Другие материалы по этой песне:
  • Аккорды и текст

Страница создана 07.07.2012
http://primanota.ru/brendan-benson/eventually-chords.htm
Привет, Гость.
Предлагаем пройти революционный курс по гитаре.
Подарок от PrimaNota.Ru, забирай!