PrimaNota.ru - самый крупный в мире бесплатный архив песенных текстов, аккордов, табулатур и нот


Breezy Lovejoy - Pyp Live - таба, видео

Регистрация Запомнить меня
Войти через:  Facebook Google Twitter Vk Yandex Mail.ru

Breezy Lovejoy - Pyp Live - таба, видео

Печатать
Просмотров: 14
-------------------------------------------------------------------------------
                             P.Y.P. - BREEZY LOVEJOY
-------------------------------------------------------------------------------
Tabbed by: Lucas S.

Tuning: Standard

VERSE:

e|-----------------------------------------------------7----------------------|
B|-----------------------------------------------------8----------------------|
G|-----------------------------------------------------9----------------------|
D|-----------------------------------------------------9----------------------|  
A|-2-2-x-x---------------------------------------------7----------------------|
E|---------2-2-x-x-3-3-x-x-x-x-x-x-3-3-x-x-2-2-x-x-0-0---x-x------------------|


CHORUS/BRIDGE/END:

e|-3----x----x---------------------------------------------------------------|
B|-5----3----1---------------------------------------------------------------|
G|-5----4----2---------------------------------------------------------------|
D|-5----4----2---------------------------------------------------------------|
A|-3----x----x---------------------------------------------------------------|
E|------3----1---------------------------------------------------------------|

Have fun!

************************************


| x = Mute note


************************************
Добавлено: 21.06.2016
Другие материалы по этой песне:
  • Аккорды и текст

Страница создана 21.06.2016
http://primanota.ru/breezy-lovejoy/pyp-live-chords.htm
Привет, Гость.
Предлагаем пройти революционный курс по гитаре.
Подарок от PrimaNota.Ru, забирай!