PrimaNota.ru - самый крупный в мире бесплатный архив песенных текстов, аккордов, табулатур и нот


Breeders - Only in 3's - текст песни, таба, видео

Регистрация Запомнить меня
Войти через:  Facebook Google Twitter Vk Yandex Mail.ru

Breeders - Only in 3's - текст песни, таба, видео

Печатать
Просмотров: 216
Уроки эстрадного вокала в Санкт-Петербурге
Авторы: Tanya Donelly, Kim Deal

}transcribed by Edmond Hum 





E----5---7-7-7-7-9---7-5----7-7-7-7-9---7-5-------------
B----5---7-7-7-7-7---7-5----7-7-7-7-7---7-5-------------
G-------------------------------------------------------
D-------------------------------------------------------
A-------------------------------------------------------
E-------------------------------------------------------

Oh - oh oh oh oh oh oh
Back burns are green and

E----7-5-3-2-3-5----------------------------------------
B--------------5----------------------------------------
G-------------------------------------------------------
D-------------------------------------------------------
A-------------------------------------------------------
E-------------------------------------------------------

Off for me and her
He's an ape, he's an ape

E----3-3-3-3-0-0----------------------------------------
B----5-5-3-3-2-2----------------------------------------
G----------------0-0------------------------------------
D-------------------------------------------------------
A-------------------------------------------------------
E-------------------------------------------------------

He's an angel

E----3-3--5-3-3-3---5-5---5-7-5-5-----------------------
B----3-3--3-3-3-3---5-5---5-5-5-5----- [ 3x ] ----------
G-------------------------------------------------------
D-------------------------------------------------------
A-------------------------------------------------------
E-------------------------------------------------------

Only in 3's, oh oh oh oh
Only in 3's, oh yeah
Only in 3's, oh oh oh oh

E----33333333-33333333-33333333-33333333----------------
B----55555555-55555555-55555555-55555555----------------
G-------------------------------------------------------
D---------------------- [ play 16th notes ] ------------
A-------------------------------------------------------
E-------------------------------------------------------

Oh - oh oh oh oh oh
Hay for a bed with her on my head
And you are the king, the same king who will burn me
  e----3-3-3-3-0-0------|--h3p0---------------------------
B----5-5-3-3-2-2------|---------------------------------
G----------------0-0--|--[ hammer and pull off ]--------
D---------------------|--[ several times       ]--------
A---------------------|---------------------------------
E---------------------|---------------------------------


E----5---7-7-7-7-9---7-5--------------------------------
B----5---7-7-7-7-7---7-5--------------------------------
G-------------------------------------------------------
D-------------------------------------------------------
A-------------------------------------------------------
E-------------------------------------------------------


E----88888888-77777777-88888888-77777777----------------
B----55555555-55555555-55555555-55555555----------------
G-------------------------------------------------------
D---------------------- [ play 16th notes ] ------------
A-------------------------------------------------------
E-------------------------------------------------------


E----3-3--5-3-3-3---5-5---5-7-5-5-----------------------
B----3-3--3-3-3-3---5-5---5-5-5-5----- [ 3x ] ----------
G-------------------------------------------------------
D-------------------------------------------------------
A-------------------------------------------------------
E-------------------------------------------------------

Only in 3's, oh oh oh oh
Only in 3's, oh yeah
Only in 3's, oh oh oh oh


E----77777777-77777777-77777777-77777777----------------
B----55555555-55555555-55555555-55555555----------------
G-------------------------------------------------------
D---------------------- [ play 16th notes ] ------------
A-------------------------------------------------------
E-------------------------------------------------------

Добавлено: 12.07.2012
Другие материалы по этой песне:
  • Аккорды и текст

Страница создана 09.04.2012
http://primanota.ru/breeders/only-in-3s-chords.htm
Привет, Гость.
Предлагаем пройти революционный курс по гитаре.
Подарок от PrimaNota.Ru, забирай!