PrimaNota.ru - самый крупный в мире бесплатный архив песенных текстов, аккордов, табулатур и нот


Breeders - Iris - аккорды и текст, таба, видео

Регистрация Запомнить меня
Войти через:  Facebook Google Twitter Vk Yandex Mail.ru

Breeders - Iris - аккорды и текст, таба, видео

Печатать
Просмотров: 270
Авторы: Kim Deal

Iris
Breeders
transcribed by Edmond Hum 



        F#  
 e------2------------------------------------------------|
 b------2------------------------------------------------|
 g------3------------------------------------------------|
 d------4------------------------------------------------|
 a------4------------------------------------------------|
*e----0h2-----|

---start---

 e----------------------|
 b----4-3---4-4-3-4-3---|
 g----------------------|
 d----------------------|
 a----------------------|
 e----------------------|


F#
four hours in a pot, one hour out
it grows and i sleep standing up
when iris sleeps over
what a book she'll write

-------------------------[ special ]-----------------------

C#       E         F#
stay for last time
C#          E            F#
oh come on, nobody wants that
       C#         E  F#    B     A
sister -  sister,    oh oh oh oh oh


 e--------------------------------------|
 b-----------------------13-13-13-13----|
 g---6-6-6-6s--9-9-9-9s--11-11-11-11----|  
 d--------------------------------------|
 a--------------------------------------|
 e--------------------------------------|

------------------------[ end special ] -------------------

F#
we tried hour by hour
hour by hour
hour by hour

 e--------------------------------------------------------------------------------------------------------|
 b----12-11---11-11-11s9-7--------------------------------------------------------------------------------|
 g--------------------------------------------------------------------------------------------------------|
 d--------------------------------------------------------------------------------------------------------|
 a--------------------------------  ?:   F7                     
? e---------------------------------|


F# 



 e--------------------------------|
 b--------------------------------|
 g--------------------------------|
 d--------------------------------|
 a------------4s--11s4s7----------|     
 e----2---4h5--------------9s2----|


F#
four hours to daylight, four hours and then
pour water on me til i live again
when iris sleeps over
it'll be alright

-------------------------[ special ]-----------------------

C#  E          F#
all last night
        C#          E            F#
because -  come on, nobody wants that
       C#         E  F#    B     A
sister,   sister,    oh oh oh oh oh



 e-------------------------------------|
 b-----------------------13-13-13-13---|
 g---6-6-6-6s--9-9-9-9s--11-11-11-11---|  
 d-------------------------------------|
 a-------------------------------------|
 e-------------------------------------|

------------------------[ end special ] -------------------

F#
we tried hour by hour
hour by hour
hour by hour


 e----------------------------|
 b----12-11---11-11-11s9-7----|
 g----------------------------|
 d----------------------------|
 a----------------------------|
 e----------------------------|
Добавлено: 06.05.2012
Другие материалы по этой песне:
  • Аккорды и текст

Страница создана 15.04.2012
http://primanota.ru/breeders/iris-chords.htm
Привет, Гость.
Предлагаем пройти революционный курс по гитаре.
Подарок от PrimaNota.Ru, забирай!