PrimaNota.ru - самый крупный в мире бесплатный архив песенных текстов, аккордов, табулатур и нот


Breeders - Hellbound - текст песни, таба, видео

Регистрация Запомнить меня
Войти через:  Facebook Google Twitter Vk Yandex Mail.ru

Breeders - Hellbound - текст песни, таба, видео

Печатать
Просмотров: 174
Авторы: Kim Deal

}transcribed by Edmond Hum 


B    Ebm    A
E----7-----6-----5--------------------------------------
B----7-----7-----5--------------------------------------
G----8-----8-----6--------------------------------------
D----9-----8-----7--------------------------------------
A----9-----6-----7--------------------------------------
E----7-----------5--------------------------------------

---start---

E-------------------------------------------------------
B-------------------------------------------------------
G-------------------------------------------------------
D-------------------------------------------------------
A------------6------------------------------------------
E----7-7-7-----5----[ 11x ] ----------------------------

B
It lives, in folds of red and steamy air
It lives in misery


E----0-0-0-0-0-0-0-0------------------------------------
B----0-0-3-3-5-5-7-7------------------------------------
G-------------------------------------------------------
D-------------------------------------------------------
A-------------------------------------------------------
E-------------------------------------------------------

E----0-0-0-0-0-0-0--------------0-0-0-0-0-0-0-0-0-------
B----0-0-3-0-0-3-0-- [7x] ------0-0-5-5-7-7-9-9-9-------
G-------------------------------------------------------
D-------------------------------------------------------
A-----------------------[ feel free to improvise this]--
E-------------------------------------------------------

Well hellbound, hellbound, hellbound, hellbound

E-------------------------------------------------------
B---------6s7s6-----------------------------------------
G----4----------6---------------------------------------
D--------------------- [ 2x ] --------------------------
A-------------------------------------------------------
E-------------------------------------------------------

E
Oh, the fallen
Falling down
Down de-down de-down

B Ebm A   - [8x]
It lives, despite the knives internal
It lives marry me
  e----0-0-0-0-0-0-0-0------------------------------------
B----0-0-3-3-5-5-7-7------------------------------------
G-------------------------------------------------------
D-------------------------------------------------------
A-------------------------------------------------------
E-------------------------------------------------------

E----0-0-0-0-0-0-0--------------0-0-0-0-0-0-0-0-0-------
B----0-0-3-0-0-3-0-- [7x] ------0-0-5-5-7-7-9-9-9-------
G-------------------------------------------------------
D-------------------------------------------------------
A-----------------------[ feel free to improvise this]--
E-------------------------------------------------------

Well hellbound, hellbound, hellbound, hellbound


E-------------------------------------------------------
B---------6s7s6-----------------------------------------
G----4----------6---------------------------------------
D--------------------- [ 2x ] --------------------------
A-------------------------------------------------------
E-------------------------------------------------------

E
Oh, the fallen
Falling down
Down de-down de-down
Down de-down de-down
Down de-down de-down



E----------------------------------6---5----------------
B----------------------------------7---5----------------
G----------------------------------8---6----------------
D----------------------------------8---7----------------
A------------6---------------------6---7----------------
E----7-7-7-----5--[2x]-----7-7-7-------5----------------

B Ebm A  - [5x]
It lives in misery

E----0-0-0-0-0-0-0-0------------------------------------
B----0-0-3-3-5-5-7-7------------------------------------
G-------------------------------------------------------
D-------------------------------------------------------
A-------------------------------------------------------
E-------------------------------------------------------

E----0-0-0-0-0-0-0--------0-0-0-0-0-0-0-0---0--0--0--0--
B----0-0-3-0-0-3-0--[7x]--0-0-5-5-7-7-9-9---15-18-15-9--
G-----------------------------------------------[etc...]
D-------------------------------------------------------
A-----------------------[ feel free to improvise this]--
E-------------------------------------------------------

Добавлено: 07.06.2012
Другие материалы по этой песне:
  • Аккорды и текст

Страница создана 02.03.2012
http://primanota.ru/breeders/hellbound-chords.htm
Привет, Гость.
Предлагаем пройти революционный курс по гитаре.
Подарок от PrimaNota.Ru, забирай!