PrimaNota.ru - самый крупный в мире бесплатный архив песенных текстов, аккордов, табулатур и нот


Breeders - Happiness is a Warm Gun - текст песни, таба, видео

Регистрация Запомнить меня
Войти через:  Facebook Google Twitter Vk Yandex Mail.ru

Breeders - Happiness is a Warm Gun - текст песни, таба, видео

Печатать
Просмотров: 158
Авторы: John Lennon, Paul McCartney

}performed by the breeders
Transcribed by Edmond Hum 

Am             Em
She's not a girl who misses much
Am                  Em
Du-du-du-du-du-du - oh yeah


Dm
She's well acquainted with the touch of a velvet hand
Am
Like a lizard on a window pane


Dm
The man in the crowd with the multicolored mirrors on his
Am
Hobnail boots


Dm
Lying with his eyes while his hands are busy
Am
Working overtime


Dm
A soap impression of his wife which he ate and donated to the
Am
National trust



E-------------------------------------------------------
B-------------------------------------------------------
G-------------------------------------------------------
D-----5-------------------------------------------------
A---7---7-------5h7-5-----------------------------------
E---------8-5-8-------8-5-------------------------------


E-------------------------------------------------------
B-------------------------------------------------------
G-------------------------------------------------------
D-----5-------------------------------------------------
A---7---7-------5-7-----7-8-9-10------------------------
E---------8-5-8-----------------------------------------



Am
I need a fix cause i'm going down

Down to the bits that i left up town
C                      Am
I need a fix cause i'm going down Am              C
Mother superior jump the gun
Am              G
Mother superior jump the gun
Am              C
Mother superior jump the gun
Am              G
Mother superior jump the gun
Am              C
Mother superior jump the gun
Am              G
Mother superior jump the gun

C    Am        F        G
Happiness is a warm gun
C    Am        F        G
Happiness is a warm gun

C  Am  F  G  [3x]

C     Am        F                G            C
Happiness is a warm gun  (bang, bang, shoot, shoot)
Am        F                G            C
Happiness is a warm gun  (bang, bang, shoot, shoot)

Добавлено: 28.06.2012
Другие материалы по этой песне:
  • Аккорды и текст

Страница создана 24.04.2012
http://primanota.ru/breeders/happiness-is-a-warm-gun-chords.htm
Привет, Гость.
Предлагаем пройти революционный курс по гитаре.
Подарок от PrimaNota.Ru, забирай!