PrimaNota.ru - самый крупный в мире бесплатный архив песенных текстов, аккордов, табулатур и нот


Breeders - Fortunately Gone - аккорды и текст, таба, бас-таба, видео

Регистрация Запомнить меня
Войти через:  Facebook Google Twitter Vk Yandex Mail.ru

Breeders - Fortunately Gone - аккорды и текст, таба, бас-таба, видео

Печатать
Просмотров: 289
Авторы: Kim Deal

Fortunately Gone
Breeders
		   Fortunately Gone
by Kim Deal

From the album "Pod"


           E
I wait for you

    G
in heaven

         B
on this perfect string of love

               E
and drink your soup

    G
of magpies in a

B				E
pottery bowl that looks as I am now

G		 B
round, brown and warm.

              E
Chime on the rain, wet (?)

    G     B
an ankle, toes a-two  (?)

		E 	      G
sweetly as it drops upon your head

              B
just like it did today.

             E 		   G
Fortunately gone, ba-ba-ba-ba

	   B
I wait for you.



solo:

--------------------------------------------------------------------
--------------------------------------------------------------------
--------------------------------------------------------------------
-----------------------------4--------------------------------------
--4-2-1-0----0-2-4-2-4-2-4/6---6------4-2-1-0---0-2-4-2-1-2---------
----------4-----------------------------------3---------------------

--------------------------------------------------------------------
--------------------------------------------------------------------
--------------------------------------------------------------------
--------------------------------------------------------------------
--2-1-2----0-2-4-2--1-1/2---2-2/4---4-4/6---6-6/7-------------------
--------3-----------------------------------------------------------


              E
Chime on the rain, wet (?)

    G     B
an ankle, toes a-two  (?)

		E 	      G
sweetly as it drops upon your head

              B
just like it did today.

             E 		   G
Fortunately gone, ba-ba-ba-ba

	   B
I wait for you.

             E 		   G
Fortunately gone, ba-ba-ba-ba

	   B
I wait for you.

}'KX-P1081€}fortunately gone by kim deal(The Breeders)
transcribed by Edmond Hum  rlp@interlog.com>

           E      G
i wait for you in heaven
        B
on this perfect string of love
               G               A
and drink your soup of magpies in a
B
pottery bowl that looks
        E    G                B
as i am now, brown, round and warm

           E
chime on a ringlet
    G      B
and ankle, toes or two
              G               A
sweetly as it drops upon your head
             B
just like it did today
            E    G
fortunately gone
           B
i wait for you
 solo>
 d--------------------------------4----------------------
 a---------------2-5----2-4-2---6---6--------------------
 e---7-6-7-4---4-----------------------------------------

 d-------------------------------------------------------
 a-----------------2-4-2-0-2-----------------------------
 e---7-6-5-4-3---3---------------------------------------

 d-------------------------------------------------------
 a---------------2-4---2-0-2---2-2s4---4-4s6---6-6-6-6---
 e---7-6-7-4---4-----------------------------------------

           E
chime on a ringlet
    G      B
and ankle, toes or two
              G               A
sweetly as it drops upon your head
             B
just like it did today
            E    G
fortunately gone
           B
i wait for you
            E    G
fortunately gone
           B
i wait for you
 outro>
 d-------------------------------------------------------
 a---6-7----2-4-2s9-------------------------------------- Ö:F7 
Š e-------------------------------------------------------     
Добавлено: 19.10.2013
Другие материалы по этой песне:
  • Аккорды и текст

Страница создана 26.03.2012
http://primanota.ru/breeders/fortunately-gone-chords.htm
Привет, Гость.
Предлагаем пройти революционный курс по гитаре.
Подарок от PrimaNota.Ru, забирай!