PrimaNota.ru - самый крупный в мире бесплатный архив песенных текстов, аккордов, табулатур и нот


Breathe Carolina - Dressing Room - текст песни, таба, видео

Регистрация Запомнить меня
Войти через:  Facebook Google Twitter Vk Yandex Mail.ru

Breathe Carolina - Dressing Room - текст песни, таба, видео

Печатать
Просмотров: 228
Standard tuning
Pluck the chords according to this tab:
     Am
e|----------------------------------|
B|---------------1------------------|
G|-----------2------2------2--------|
D|-------2--------------2-----------|
A|---0------------------------------|
E|----------------------------------|

     C
e|--------------------------------|
B|------------1-------------------|
G|---------0------0----0----------|
D|------2-----------2-------------|
A|----3---------------------------|
E|--------------------------------|

     G
e|------------------------------|
B|---------------3--------------|
G|-----------0-----0----0-------|
D|--------0-----------0---------|
A|-----2------------------------|
E|------------------------------|

     Dm

e|---------------1-------------------|
B|----------3-------3----3-----------|
G|------2--------------2-------------|
D|----0------------------------------|
A|-----------------------------------|
E|-----------------------------------|


Am	     C		            G
  Oh god, I already forgot your name
      Dm		         Am
But a name's just a string of letters
	C	  G	    Dm
Put together, so clever.

Am	     C      			      G
  Oh god, I thought that I found god in your name
         Dm			      Am
It's upsetting, but the setting has changed
           C	         G	      Dm
We're never gonna be the same

        Am		       C
If you look everybody here is trying on new faces
	G                     Dm
And the ones that fit are surprisingly contagious
       Am			C		   G
With a shiny new beginning we cordially invite you to,
G		     Am
   Into the dressing room.

C  G  Dm

Am	       C	                  G
   Oh god, it seems that I misplaced your secret
    Dm		        Am     C		  G     Dm
But I can see what it does, oh how it lights you up

Am	            C         		  G
   Oh god, this season's had some better days
	Dm			         Am
Keep it steady cause your losing the pace
      C			    G	      Dm
We're never gonna be the same

       Am		 C
If you look everybody is trying on new faces
G		             Dm
And the ones that fit are surprisingly contagious
        Am			C		     G
With a shiny new beginning we cordially invite you to,
G		    Am
  Into the dressing room.

C   G

G		    Am
  Into the dressing room.(woah oh)

C   G

G		     Am
  Into the dressing room.

C  G   Dm

[Kyle Screaming:]
Am			       C        			            G
  Don't spill your guts 'cause that's a mess that no one wants to clean up
            Dm		     Am	          C               G           Dm
This is enough, my heart is stuck, this feelings breaking me up X2

Am		    C
Look everybody is trying on new faces
        G		       Dm
And the ones that fit are surprisingly contagious
	Am			C		     G
With a shiny new beginning we cordially invite you to,
G		    Am          C    G   Dm
  Into the dressing room. x3 (woah oh, woah)

This is my first tab! Enjoy! (sorry if the Chords are a little unaligned with the 
submiting the tab it moved a bit -.-;;)

--Hellful
Добавлено: 23.03.2012
Другие материалы по этой песне:
  • Аккорды и текст

Страница создана 23.03.2012
http://primanota.ru/breathe-carolina/dressing-room-chords.htm
Привет, Гость.
Предлагаем пройти революционный курс по гитаре.
Подарок от PrimaNota.Ru, забирай!