PrimaNota.ru - самый крупный в мире бесплатный архив песенных текстов, аккордов, табулатур и нот


Breaking Wheel - Shoulder To The Plow - таба, видео

Регистрация Запомнить меня
Войти через:  Facebook Google Twitter Vk Yandex Mail.ru

Breaking Wheel - Shoulder To The Plow - таба, видео

Печатать
Просмотров: 119
----------------------------------------------------------------------------
                     Shoulder to the Plow - Breaking Wheel 
----------------------------------------------------------------------------
Tabbed by: FacetOfChaos
Email: abcnumber4@yahoo.com

Tuning: Drop C (CGCFAD)

I strongly suggest you listen to the song while learning the tab. Doing so will 
make it easier to know what each part is.

Intro Riff 
D|-------------------------------------------------|
A|-------------------------------------------------|
F|-------------------------------------------------|
C|-------------------------------------------------|
G|-5h6p5p0-----------------------------0-----------|
C|---------7h8p7p5-5h7p5/3-3h5-2h3-1h2-0-----------|

D|-------------------------------------------------|
A|-------------------------------------------------|
F|-------------------------------------------------|
C|-------------------------------------------------|
G|-7h8p7--------------------------------2----------|
C|-------9-9h10p9p7-7h9p7/5-5h7-4h5-3h4-2----------|x2

Verse
D|-----------------------------------------------------------------|
A|-----------------------------------------------------------------|
F|-----------------------------------------------------------------|
C|-----------------------------------------------------------------|
G|-------------------------------4-4-4-4-4-4-4-4-4-5-5-5-5-5-5-----|
C|-4-4-4-4-4-4-4-4-4-5-5-5-5-5-5-------------------------------4-4-|

D|-------------------------------------------------------------|
A|-------------------------------------------------------------|
F|-------------------------------------------------------------|
C|-------------------------------------------------------------|
G|-------------------------------------------------------------|
C|-2-2-2-2-2-2-2-2-2-1-1-1-1-1-1-2-2-2-2-2-2-2-2-2-1-1-1-1-1-1-|

D|-----------------------------------------------------------------------|
A|-----------------------------------------------------------------------|
F|-----------------------------------------------------------------------|
C|-----------------------------------------------------------------------|
G|-------------------------------4-4-4-4-4-4-4-4-4-5-5-5-5-5-5-----------|
C|-4-4-4-4-4-4-4-4-4-5-5-5-5-5-5-------------------------------4-4--2--2-|

D|------------------|--------------|
A|------------------|--------------|
F|-3b4---------3b4--|--------------|
C|-2-----------2----|--------------|
G|------------------|---2--2--2----|
C|-----1-2---2-----1|x2-2--2--2--1-|

Chorus 
D|--------------------------------------------------------------------|
A|--------------------------------------------------------------------|
F|--------------------------------------------------------------------|
C|--------------------------------------------------------------------|
G|-0-------2------3------2-5------6------5------8------8------7-------|
C|-0---0-0-2--0-0-3--0-0-2-5--5-5-6--5-5-5--5-5-8--8-8-8--7-7-7--6--5-|
             
D|---------|   |---------|
A|---------|   |---------|
F|---------|   |---------|
C|---------|   |---------|
G|-6-6-9-6-|   |---------| Play this instead of -6-6-9-6- on the repeat.
C|---------|x2 |-1-1-4-1-|

Trem Verse A (tremolo pick this the whole time) 
D|-------------11---------------------------------11----|
A|-10-8--10b11-10b11--10--8-10-8-10--8-10-8--9b10--9b10-|
F|------------------------------------------------------|
C|------------------------------------------------------|
G|------------------------------------------------------|
C|------------------------------------------------------|

Verse

Chorus

Trem Verse B (tremolo pick this)
D|-------------------------7---7-8-7-5---|
A|-6---5t6-6---5t6-8---5t8-------------8-|
F|---------------------------------------|
C|---------------------------------------|
G|---------------------------------------|
C|---------------------------------------|x4

Pre-Solo A
D|-------------------------------------------------------------------------|
A|-------------------------------------------------------------------------|
F|-------------------------------------------------------------------------|
C|-------------------------------------------------------------------------|
G|-------------------------------------------------------------------------|
C|-0-0-0-0-0-0-1-1-4-4-1-1-0-0-0-0-0-0-1-1-4-4-1-1-0-0-0-0-0-0-1-1-4-4-1-1-|

D|-------------------------|---------|
A|-------------1-1-2-2-1-1-|---------|
F|-2-2-3-3-2-2-------------|---------|
C|-------------------------|---------|
G|-------------------------|---0---2-|
C|-------------------------|x4-0---2-|

Pre-Solo B
D|-----------------------|
A|-----------------------|
F|-----------------------|
C|-----------------------|
G|-6p5p0h5-------5-----5-|
C|----------0-0-----0--0-|x4

Solo
(sorry but I can't tab the solo)

Intro x4


| b  bend
| t  trill
| /  slide up
| \  slide down
| h  hammer-on
| p  pull-off
| ~  vibrato
| +  harmonic
| x  Mute note
============================================================================
Добавлено: 03.03.2012
Вам также может быть интересно:
Другие материалы по этой песне:
  • Аккорды и текст

Страница создана 03.03.2012
http://primanota.ru/breaking-wheel/shoulder-to-the-plow-chords.htm
Привет, Гость.
Предлагаем пройти революционный курс по гитаре.
Подарок от PrimaNota.Ru, забирай!