PrimaNota.ru - самый крупный в мире бесплатный архив песенных текстов, аккордов, табулатур и нот


Breaking The Scene - Stuck Between The Lies - таба, видео

Регистрация Запомнить меня
Войти через:  Facebook Google Twitter Vk Yandex Mail.ru

Breaking The Scene - Stuck Between The Lies - таба, видео

Печатать
Просмотров: 104
Tune Half-Step Down and Drop Db

Eb
Bb
Gb
Db
Ab
Db


Lead
      PM PM PM PM PM PM PM PM    PM PM PM PM PM PM PM PM  
      E  E  E  E  E  E  E  E     E  E  E  E  E  E  E  E   
D#||--------------------------|--------------------------|
A#||--------------------------|--------------------------|
F#||--------------------------|--------------------------|
C#||--------2--------5--------|--2--------8--------7-----|
G#||--0--0-----0--0-----0--0--|-----0--0-----0--0-----0--|
C#||--------------------------|--------------------------|


  PM PM PM PM PM PM PM PM    PM PM PM PM PM PM PM PM  
  E  E  E  E  E  E  E  E     E  E  E  E  E  E  E  E   
--------------------------|--------------------------|
--------------------------|--------------------------|
--------------------------|--------------------------|
--------2--------5--------|--2--------8--------7-----|
--0--0-----0--0-----0--0--|-----0--0-----0--0-----0--|
--------------------------|--------------------------|


  PM PM PM PM PM PM PM PM    PM PM PM PM PM PM PM PM  
  E  E  E  E  E  E  E  E     E  E  E  E  E  E  E  E   
--------------------------|--------------------------|
--------------------------|--------------------------|
--------------------------|--------------------------|
--------2--------5--------|--2--------8--------7-----|
--0--0-----0--0-----0--0--|-----0--0-----0--0-----0--|
--------------------------|--------------------------|


  PM PM PM PM PM PM PM PM                             
  E  E  E  E  E  E  E  E     E  E  E  E  E  E  E  E   
--------------------------|--------------------------|
--------------------------|--------------------------|
--------------------------|-----x--x--x-----x--x-----|
--------2--------5--------|--2--x--x--x-----x--x-----|
--0--0-----0--0-----0--0--|-----x--x--x-----x--x-----|
--------------------------|--------------------------|


   E   E   E   E   E   E   E   E      E   E   E   E   E   E   E   E   
---0---0---0---0---0---0---0---0--|---0---0---0--12--12--12--12--12--|
--12--12--12--13--13--13--12--12--|--10--10--10--10--10--10--10--10--|
----------------------------------|----------------------------------|
----------------------------------|----------------------------------|
----------------------------------|----------------------------------|
----------------------------------|----------------------------------|


   E   E   E   E   E   E   E   E      E   E   E   E   E   E   E   E   
---0---0---0---0---0---0---0---0--|---0---0---0--12--12--12--12--12--|
--12--12--12--13--13--13--12--12--|--10--10--10--10--10--10--10--10--|
----------------------------------|----------------------------------|
----------------------------------|----------------------------------|
----------------------------------|----------------------------------|
----------------------------------|----------------------------------|


   E   E   E   E   E   E   E   E      E   E   E   E   E   E   E   E   
---0---0---0---0---0---0---0---0--|---0---0---0--12--12--12--12--12--|
--12--12--12--13--13--13--12--12--|--10--10--10--10--10--10--10--10--|
----------------------------------|----------------------------------|
----------------------------------|----------------------------------|
----------------------------------|----------------------------------|
----------------------------------|----------------------------------|


   E   E   E   E   E   E   E   E      E   E   E   E   E   E   E   E   
---0---0---0---0---0---0---0---0--|---0---0---0---0---0---0---0---0--|
--10--10--10--10--10--10--10--10--|--13--13--13--12--12--12--12--12--|
----------------------------------|----------------------------------|
----------------------------------|----------------------------------|
----------------------------------|----------------------------------|
----------------------------------|----------------------------------|


   E   E   E   E   E   E   E   E      E   E   E   E   E   E   E   E   
---0---0---0---0---0---0---0---0--|---0---0---0--12--12--12--12--12--|
--12--12--12--13--13--13--12--12--|--10--10--10--10--10--10--10--10--|
----------------------------------|----------------------------------|
----------------------------------|----------------------------------|
----------------------------------|----------------------------------|
----------------------------------|----------------------------------|


   E   E   E   E   E   E   E   E      E   E   E   E   E   E   E   E   
---0---0---0---0---0---0---0---0--|---0---0---0--12--12--12--12--12--|
--12--12--12--13--13--13--12--12--|--10--10--10--10--10--10--10--10--|
----------------------------------|----------------------------------|
----------------------------------|----------------------------------|
----------------------------------|----------------------------------|
----------------------------------|----------------------------------|


   E   E   E   E   E   E   E   E      E   E   E   E   E   E   E   E   
---0---0---0---0---0---0---0---0--|---0---0---0--12--12--12--12--12--|
--12--12--12--13--13--13--12--12--|--10--10--10--10--10--10--10--10--|
----------------------------------|----------------------------------|
----------------------------------|----------------------------------|
----------------------------------|----------------------------------|
----------------------------------|----------------------------------|


   E   E   E   E   E   E   E   E      E   E   E   E   E   E   E   E   
---0---0---0---0---0---0---0---0--|---0---0---0---0---0---0---0---0--|
--10--10--10--10--10--10--10--10--|--13--13--13--12--12--12--12--12--|
----------------------------------|----------------------------------|
----------------------------------|----------------------------------|
----------------------------------|----------------------------------|
----------------------------------|----------------------------------|


  PM PM PM PM PM PM PM PM    PM PM PM PM PM PM PM PM  
  E  E  E  E  E  E  E  E     E  E  E  E  E  E  E  E   
--------------------------|--------------------------|
--------------------------|--------------------------|
--------------------------|--------------------------|
--------2--------5--------|--2--------2--------2-----|
--0--0-----0--0-----0--0--|-----0--0-----0--0-----0--|
--------------------------|--------------------------|


  PM PM PM PM PM PM PM PM    PM PM PM PM PM PM PM PM  
  E  E  E  E  E  E  E  E     E  E  E  E  E  E  E  E   
--------------------------|--------------------------|
--------------------------|--------------------------|
--------------------------|--------------------------|
--------2--------5--------|--2--------2--------2-----|
--0--0-----0--0-----0--0--|-----0--0-----0--0-----0--|
--------------------------|--------------------------|


  PM PM PM PM PM PM PM PM    PM PM PM PM PM PM PM PM  
  E  E  E  E  E  E  E  E     E  E  E  E  E  E  E  E   
--------------------------|--------------------------|
--------------------------|--------------------------|
--------------------------|--------------------------|
--------2--------5--------|--2--------2--------2-----|
--0--0-----0--0-----0--0--|-----0--0-----0--0-----0--|
--------------------------|--------------------------|


  E  E  E  E  E  E  E  E     E  E  E  E  E  E  E  E     Q    Q    Q    Q     
--0--0--0--0--0--0--0--0--|--0--0--0--0--0--0--0--0--|----------------------|
--3--3--3--3--3--3--3--3--|--5--5--5--5--5--5--5--5--|----------------------|
--2--2--2--2--2--2--2--2--|--4--4--4--4--4--4--4--4--|--9----9----9----9----|
--0--0--0--0--0--0--0--0--|--0--0--0--0--0--0--0--0--|----------------------|
--0--0--0--0--0--0--0--0--|--------------------------|--7----7----7----7----|
--0--0--0--0--0--0--0--0--|--------------------------|----------------------|


  Q    Q    Q    Q       Q    Q    Q    Q       Q    Q    E  E  E  E   
----------------------|----------------------|------------------------|
----------------------|----------------------|------------------------|
--9----9----9----9----|--7----7----7----7----|--7----7----7--7--7--7--|
----------------------|----------------------|------------------------|
--7----7----7----7----|--5----5----5----5----|--5----5----5--5--5--5--|
----------------------|----------------------|------------------------|


   Q     Q     Q     Q        Q     Q     E   E   E   E   
--------------------------|------------------------------|
--------------------------|------------------------------|
--12----12----12----12----|--12----12----12--12--12--12--|
--------------------------|------------------------------|
--10----10----10----10----|--10----10----10--10--10--10--|
--------------------------|------------------------------|


   E    E   E   E   E   E   E   E      E   E   E   E   E   E   E   E   
-----------------------------------|----------------------------------|
-----------------------------------|----------------------------------|
--12s--14--14--14--14--14--14--14--|--14--14--14--14--14--14--14--14--|
-----------------------------------|----------------------------------|
--10s--12--12--12--12--12--12--12--|--12--12--12--12--12--12--12--12--|
-----------------------------------|----------------------------------|


  Q.      Q.     Q       X. H.           E  T    Q.      Q.     E.   
----------------------|-----------------------|---------------------|
----------------------|-----------------------|---------------------|
----------------------|-----------------------|---------------------|
--9------10------9----|--L--7------------L--L-|--9------10------9---|
----------------------|-----------------------|---------------------|
----------------------|-----------------------|---------------------|


  X.  H.           E  T    Q.      Q.     Q       W                 
------------------------|----------------------|-------------------|
------------------------|----------------------|-------------------|
------------------------|----------------------|-------------------|
--Ls-14------------L--L-|--9------10------9----|--L----------------|
------------------------|----------------------|-------------------|
------------------------|----------------------|-------------------|


   E   E   E   E   E   E   E   E      E   E   E   E   E   E   E.   S  
--12--10------13--10------12--10--|------13--10------12--10--12s---x-|
----------10----------10----------|--10----------10------------------|
----------------------------------|----------------------------------|
----------------------------------|----------------------------------|
----------------------------------|----------------------------------|
----------------------------------|----------------------------------|


  Q.      Q.     Q       X. H.           E  T    Q.      Q.     E.   
----------------------|-----------------------|---------------------|
----------------------|-----------------------|---------------------|
----------------------|-----------------------|---------------------|
--9------10------9----|--L--7------------L--L-|--9------10------9---|
----------------------|-----------------------|---------------------|
----------------------|-----------------------|---------------------|


  X.  H.           E  T    Q.      Q.     Q       W                 
------------------------|----------------------|-------------------|
------------------------|----------------------|-------------------|
------------------------|----------------------|-------------------|
--Ls-14------------L--L-|--9------10------9----|--L----------------|
------------------------|----------------------|-------------------|
------------------------|----------------------|-------------------|


   E   E   E   E   E   E   E   E      E   E   E   E   E   E   E.   S  
--12--10------13--10------12--10--|------13--10------12--10--12s---x-|
----------10----------10----------|--10----------10------------------|
----------------------------------|----------------------------------|
----------------------------------|----------------------------------|
----------------------------------|----------------------------------|
----------------------------------|----------------------------------|


  PM PM PM PM PM PM PM PM    PM PM PM PM PM PM PM PM  
  E  E  E  E  E  E  E  E     E  E  E  E  E  E  E  E   
--------------------------|--------------------------|
--------------------------|--------------------------|
--------------------------|--------------------------|
--------2--------5--------|--2--------2--------2-----|
--0--0-----0--0-----0--0--|-----0--0-----0--0-----0--|
--------------------------|--------------------------|


  PM PM PM PM PM PM PM PM    PM PM PM PM PM PM PM PM  
  E  E  E  E  E  E  E  E     E  E  E  E  E  E  E  E   
--------------------------|--------------------------|
--------------------------|--------------------------|
--------------------------|--------------------------|
--------2--------5--------|--2--------2--------2-----|
--0--0-----0--0-----0--0--|-----0--0-----0--0-----0--|
--------------------------|--------------------------|


  PM PM PM PM PM PM PM PM    PM PM PM PM PM PM PM PM  
  E  E  E  E  E  E  E  E     E  E  E  E  E  E  E  E   
--------------------------|--------------------------|
--------------------------|--------------------------|
--------------------------|--------------------------|
--------2--------5--------|--2--------2--------2-----|
--0--0-----0--0-----0--0--|-----0--0-----0--0-----0--|
--------------------------|--------------------------|


  E  E  E  E  E  E  E  E     E  E  E  E  E  E  E  E     Q    Q    Q    Q     
--0--0--0--0--0--0--0--0--|--0--0--0--0--0--0--0--0--|----------------------|
--3--3--3--3--3--3--3--3--|--5--5--5--5--5--5--5--5--|----------------------|
--2--2--2--2--2--2--2--2--|--4--4--4--4--4--4--4--4--|--9----9----9----9----|
--0--0--0--0--0--0--0--0--|--0--0--0--0--0--0--0--0--|----------------------|
--0--0--0--0--0--0--0--0--|--------------------------|--7----7----7----7----|
--0--0--0--0--0--0--0--0--|--------------------------|----------------------|


  Q    Q    Q    Q       Q    Q    Q    Q       Q    Q    E  E  E  E   
----------------------|----------------------|------------------------|
----------------------|----------------------|------------------------|
--9----9----9----9----|--7----7----7----7----|--7----7----7--7--7--7--|
----------------------|----------------------|------------------------|
--7----7----7----7----|--5----5----5----5----|--5----5----5--5--5--5--|
----------------------|----------------------|------------------------|


   Q     Q     Q     Q        Q     Q     E   E   E   E   
--------------------------|------------------------------|
--------------------------|------------------------------|
--12----12----12----12----|--12----12----12--12--12--12--|
--------------------------|------------------------------|
--10----10----10----10----|--10----10----10--10--10--10--|
--------------------------|------------------------------|


  E  E  E   E   E   E   E   E      E   E   E   E   E   E   E   E   
-------------------------------|----------------------------------|
-------------------------------|----------------------------------|
--9--9--9--12--12--12--12--12--|--12--14--14--14--14--14--14--14--|
-------------------------------|----------------------------------|
--7--7--7--10--10--10--10--10--|--10--12--12--12--12--12--12--12--|
-------------------------------|----------------------------------|


  Q.      Q.     Q       X. H.           E  T    Q.      Q.     E.   
----------------------|-----------------------|---------------------|
----------------------|-----------------------|---------------------|
----------------------|-----------------------|---------------------|
--9------10------9----|--L--7------------L--L-|--9------10------9---|
----------------------|-----------------------|---------------------|
----------------------|-----------------------|---------------------|


  X.  H.           E  T    Q.      Q.     Q       W                 
------------------------|----------------------|-------------------|
------------------------|----------------------|-------------------|
------------------------|----------------------|-------------------|
--Ls-14------------L--L-|--9------10------9----|--L----------------|
------------------------|----------------------|-------------------|
------------------------|----------------------|-------------------|


   E   E   E   E   E   E   E   E      E   E   E   E   E   E   E.   S  
--12--10------13--10------12--10--|------13--10------12--10--12s---x-|
----------10----------10----------|--10----------10------------------|
----------------------------------|----------------------------------|
----------------------------------|----------------------------------|
----------------------------------|----------------------------------|
----------------------------------|----------------------------------|


  Q.      Q.     Q       X. H.           E  T    Q.      Q.     E.   
----------------------|-----------------------|---------------------|
----------------------|-----------------------|---------------------|
----------------------|-----------------------|---------------------|
--9------10------9----|--L--7------------L--L-|--9------10------9---|
----------------------|-----------------------|---------------------|
----------------------|-----------------------|---------------------|


  X.  H.           E  T    Q.      Q.     Q       W                 
------------------------|----------------------|-------------------|
------------------------|----------------------|-------------------|
------------------------|----------------------|-------------------|
--Ls-14------------L--L-|--9------10------9----|--L----------------|
------------------------|----------------------|-------------------|
------------------------|----------------------|-------------------|


   E   E   E   E   E   E   E   E      E   E   E   E   E   E   E.   S  
--12--10------13--10------12--10--|------13--10------12--10--12s---x-|
----------10----------10----------|--10----------10------------------|
----------------------------------|----------------------------------|
----------------------------------|----------------------------------|
----------------------------------|----------------------------------|
----------------------------------|----------------------------------|


   E   E   E   E   E   E   E   E      E   E   E   E   E   E   E   E   
--12--10------13--10------12--10--|------13--10------12--10--12--10--|
----------10----------10----------|--10----------10------------------|
----------------------------------|----------------------------------|
----------------------------------|----------------------------------|
----------------------------------|----------------------------------|
----------------------------------|----------------------------------|


   E   E   E   E   E   E   E   E      E   E   E   E   E   E   E   E   
--12--10------13--10------12--10--|------13--10------12--10--12--10--|
----------10----------10----------|--10----------10------------------|
----------------------------------|----------------------------------|
----------------------------------|----------------------------------|
----------------------------------|----------------------------------|
----------------------------------|----------------------------------|


   E   E   E   E   E   E   E   E      E   E   E   E   E   E   E   E   
--12--10------13--10------12--10--|------13--10------12--10--12--10--|
----------10----------10----------|--10----------10------------------|
----------------------------------|----------------------------------|
----------------------------------|----------------------------------|
----------------------------------|----------------------------------|
----------------------------------|----------------------------------|


   E   E   E   E   E   E   E   E      E   E   E   E   E   E   E   E   
----------------------------------|----------------------------------|
--10--10--10--12--12--12--13--13--|--13--12--12--12--12--12--12--12--|
----------------------------------|----------------------------------|
----------------------------------|----------------------------------|
----------------------------------|----------------------------------|
----------------------------------|----------------------------------|


   E   E   E   E   E   E   E   E      E   E   E   E   E   E   E   E   
--12--10------13--10------12--10--|------13--10------12--10--12--10--|
----------10----------10----------|--10----------10------------------|
----------------------------------|----------------------------------|
----------------------------------|----------------------------------|
----------------------------------|----------------------------------|
----------------------------------|----------------------------------|


   E   E   E   E   E   E   E   E      E   E   E   E   E   E   E   E   
--12--10------13--10------12--10--|------13--10------12--10--12--10--|
----------10----------10----------|--10----------10------------------|
----------------------------------|----------------------------------|
----------------------------------|----------------------------------|
----------------------------------|----------------------------------|
----------------------------------|----------------------------------|


   E   E   E   E   E   E   E   E      E   E   E   E   E   E   E   E   
--12--10------13--10------12--10--|------13--10------12--10--12--10--|
----------10----------10----------|--10----------10------------------|
----------------------------------|----------------------------------|
----------------------------------|----------------------------------|
----------------------------------|----------------------------------|
----------------------------------|----------------------------------|


   E   E   E   E   E   E   E   E      E   E   E   E   E   E   E   E   
----------------------------------|----------------------------------|
--10--10--10--12--12--12--13--13--|--13--12--12--12--12--12--12--12--|
----------------------------------|----------------------------------|
----------------------------------|----------------------------------|
----------------------------------|----------------------------------|
----------------------------------|----------------------------------|


   E   E   E   E   E   E   E   E      E   E   E   E   E   E   E   E   
----------------------------------|----------------------------------|
--10--10--10--12--12--12--13--13--|--13--12--12--12--12--12--12--12--|
----------------------------------|----------------------------------|
----------------------------------|----------------------------------|
----------------------------------|----------------------------------|
----------------------------------|----------------------------------|


   E   E   E   E   E   E   E   E      E   E   E   E   E   E   E   E   
----------------------------------|----------------------------------|
--10--10--10--12--12--12--13--13--|--13--12--12--12--12--12--12--12--|
----------------------------------|----------------------------------|
----------------------------------|----------------------------------|
----------------------------------|----------------------------------|
----------------------------------|----------------------------------|


   E   E   E  E  E  E  E  E     E  E  E  E  E  E  E  E   
-----------------------------|--------------------------|
--10--10--10--8--8--8--8--8--|--8--8--8--8--8--8--8--8--|
-----------------------------|--------------------------|
-----------------------------|--------------------------|
-----------------------------|--------------------------|
-----------------------------|--------------------------|


   E   E   E   E   E   E   E   E      E   E   E   E   E   E   E   E   
----------------------------------|--12--12--12--12--12--12--12--12--|
--10--10--10--10--10--10--10--10--|--10--10--10--10--10--10--10--10--|
----------------------------------|----------------------------------|
----------------------------------|----------------------------------|
----------------------------------|----------------------------------|
----------------------------------|----------------------------------|


   E   E   E   E   E   E   E   E      E   E   E   E   E   E   E   E   
----------------------------------|----------------------------------|
--10--10--10--12--12--12--13--13--|--13--12--12--12--12--12--12--12--|
----------------------------------|----------------------------------|
----------------------------------|----------------------------------|
----------------------------------|----------------------------------|
----------------------------------|----------------------------------|


   E   E   E   E   E   E   E   E      E   E   E   E   E   E   E   E   
----------------------------------|----------------------------------|
--10--10--10--12--12--12--13--13--|--13--12--12--12--12--12--12--12--|
----------------------------------|----------------------------------|
----------------------------------|----------------------------------|
----------------------------------|----------------------------------|
----------------------------------|----------------------------------|


   E   E   E  E  E  E  E  E     E  E  E  E  E  E  E  E   
-----------------------------|--------------------------|
--10--10--10--8--8--8--8--8--|--8--8--8--8--8--8--8--8--|
-----------------------------|--------------------------|
-----------------------------|--------------------------|
-----------------------------|--------------------------|
-----------------------------|--------------------------|


   E   E   E   E   E   E   E   E      E   E   E   E   E   E   E   E   
----------------------------------|--12--12--12--12--12--12--12--12--|
--10--10--10--10--10--10--10--10--|--10--10--10--10--10--10--10--10--|
----------------------------------|----------------------------------|
----------------------------------|----------------------------------|
----------------------------------|----------------------------------|
----------------------------------|----------------------------------|


   E   E   E   E   E   E   E   E      E   E   E   E   E   E   E   E   
----------------------------------|----------------------------------|
--10--10--10--12--12--12--13--13--|--13--12--12--12--12--12--12--12--|
----------------------------------|----------------------------------|
----------------------------------|----------------------------------|
----------------------------------|----------------------------------|
----------------------------------|----------------------------------|


   E   E   E   E   E   E   E   E      E   E   E   E   E   E   E   E   
----------------------------------|----------------------------------|
--10--10--10--12--12--12--13--13--|--13--12--12--12--12--12--12--12--|
----------------------------------|----------------------------------|
----------------------------------|----------------------------------|
----------------------------------|----------------------------------|
----------------------------------|----------------------------------|


   E   E   E  E  E  E  E  E     E  E  E  E  E  E  E  E   
-----------------------------|--------------------------|
--10--10--10--8--8--8--8--8--|--8--8--8--8--8--8--8--8--|
-----------------------------|--------------------------|
-----------------------------|--------------------------|
-----------------------------|--------------------------|
-----------------------------|--------------------------|


  E  E  E  E  E  E  E  E     E  E  E  E  E  E  E  E     Q.      Q.     Q     
--------------------------|--------------------------|----------------------|
--------------------------|--------------------------|----------------------|
--------------------------|--------------------------|----------------------|
--2--2--2--5--5--5--8--8--|--8--7--7--7--7--7--7--7--|--9------10------9----|
--------------------------|--------------------------|----------------------|
--------------------------|--------------------------|----------------------|


  X. H.           E  T    Q.      Q.     E.     X.  H.           E  T  
-----------------------|---------------------|------------------------|
-----------------------|---------------------|------------------------|
-----------------------|---------------------|------------------------|
--L--7------------L--L-|--9------10------9---|--Ls-14------------L--L-|
-----------------------|---------------------|------------------------|
-----------------------|---------------------|------------------------|


  Q.      Q.     Q       W                    E   E   E   E   E   E   E   E   
----------------------|-------------------|--12--10------13--10------12--10--|
----------------------|-------------------|----------10----------10----------|
----------------------|-------------------|----------------------------------|
--9------10------9----|--L----------------|----------------------------------|
----------------------|-------------------|----------------------------------|
----------------------|-------------------|----------------------------------|


   E   E   E   E   E   E   E.   S    Q.      Q.     Q     
------13--10------12--10--12s---x-|----------------------|
--10----------10------------------|----------------------|
----------------------------------|----------------------|
----------------------------------|--9------10------9----|
----------------------------------|----------------------|
----------------------------------|----------------------|


  X. H.           E  T    Q.      Q.     E.     X.  H.           E  T  
-----------------------|---------------------|------------------------|
-----------------------|---------------------|------------------------|
-----------------------|---------------------|------------------------|
--L--7------------L--L-|--9------10------9---|--Ls-14------------L--L-|
-----------------------|---------------------|------------------------|
-----------------------|---------------------|------------------------|


  Q.      Q.     Q       W                    E   E   E   E   E   E   E   E   
----------------------|-------------------|--12--10------13--10------12--10--|
----------------------|-------------------|----------10----------10----------|
----------------------|-------------------|----------------------------------|
--9------10------9----|--L----------------|----------------------------------|
----------------------|-------------------|----------------------------------|
----------------------|-------------------|----------------------------------|


   E   E   E   E   E   E   E.   S    E  E  E  E  E  E  E  E   
------13--10------12--10--12s---x-|--------------------------|
--10----------10------------------|--------------------------|
----------------------------------|--------------------------|
----------------------------------|--------2--------5--------|
----------------------------------|--0--0-----0--0-----0--0--|
----------------------------------|--------------------------|


  E  E  E  E  E  E  E  E     E  E  E  E  E  E  E  E     E  E  E  E  E  E  Q     
--------------------------|--------------------------|-------------------------|
--------------------------|--------------------------|-------------------------|
--------------------------|--------------------------|-------------------------|
--2--------2--------2-----|--------2--------5--------|--2--------2--------2----|
-----0--0-----0--0-----0--|--0--0-----0--0-----0--0--|-----0--0-----0--0-------|
--------------------------|--------------------------|-------------------------|


  W                        
-------------------|-----||
-------------------|-----||
-------------------|-----||
--L----------------|-----||
-------------------|-----||
-------------------|-----||

Rhythm
                                       W                   W                 
D#||-------|-------|-------|-------|--------------------|-------------------|
A#||-------|-------|-------|-------|--10----------------|--L----------------|
F#||-------|-------|-------|-------|---9----------------|--L----------------|
C#||-------|-------|-------|-------|--------------------|-------------------|
G#||-------|-------|-------|-------|---7----------------|--L----------------|
C#||-------|-------|-------|-------|--------------------|-------------------|


  W                   E  E  E  E  E  E  E  E   
-------------------|--------------------------|
--L----------------|--L-----------------------|
--L----------------|--L--x--x--x-----x--x-----|
-------------------|--L--x--x--x-----x--x-----|
--L----------------|--L--x--x--x-----x--x-----|
-------------------|--------------------------|


   E   E   E   E   E   E   E   E      E   E   E   E   E   E   E   E   
----------------------------------|----------------------------------|
--10--10--10--10--10--10--10--10--|--10--10--10--10--10--10--10--10--|
---9---9---9---9---9---9---9---9--|---9---9---9---9---9---9---9---9--|
----------------------------------|----------------------------------|
---7---7---7---7---7---7---7---7--|---7---7---7---7---7---7---7---7--|
----------------------------------|----------------------------------|


  E  E  E  E  E  E  E  E     E  E  E  E  E  E  E  E   
--------------------------|--------------------------|
--8--8--8--8--8--8--8--8--|--8--8--8--8--8--8--8--8--|
--7--7--7--7--7--7--7--7--|--7--7--7--7--7--7--7--7--|
--------------------------|--------------------------|
--5--5--5--5--5--5--5--5--|--5--5--5--5--5--5--5--5--|
--------------------------|--------------------------|


  E  E  E  E  E  E  E  E     E  E  E  E  E  E  E  E   
--------------------------|--------------------------|
--6--6--6--6--6--6--6--6--|--6--6--6--6--6--6--6--6--|
--5--5--5--5--5--5--5--5--|--5--5--5--5--5--5--5--5--|
--------------------------|--------------------------|
--3--3--3--3--3--3--3--3--|--3--3--3--3--3--3--3--3--|
--------------------------|--------------------------|


  E  E  E  E  E  E  E  E     S  S E  E  E  E  E  E  E   
--------------------------|----------------------------|
--8--8--8--8--8--8--8--8--|--8s-x----------------------|
--7--7--7--7--7--7--7--7--|--7s-x-x--x--x-----x--x-----|
--------------------------|-------x--x--x-----x--x-----|
--5--5--5--5--5--5--5--5--|--5s-x-x--x--x-----x--x-----|
--------------------------|----------------------------|


   E   E   E   E   E   E   E   E      E   E   E   E   E   E   E   E   
----------------------------------|----------------------------------|
--10--10--10--10--10--10--10--10--|--10--10--10--10--10--10--10--10--|
---9---9---9---9---9---9---9---9--|---9---9---9---9---9---9---9---9--|
----------------------------------|----------------------------------|
---7---7---7---7---7---7---7---7--|---7---7---7---7---7---7---7---7--|
----------------------------------|----------------------------------|


  E  E  E  E  E  E  E  E     E  E  E  E  E  E  E  E   
--------------------------|--------------------------|
--8--8--8--8--8--8--8--8--|--8--8--8--8--8--8--8--8--|
--7--7--7--7--7--7--7--7--|--7--7--7--7--7--7--7--7--|
--------------------------|--------------------------|
--5--5--5--5--5--5--5--5--|--5--5--5--5--5--5--5--5--|
--------------------------|--------------------------|


  E  E  E  E  E  E  E  E     E  E  E  E  E  E  E  E   
--------------------------|--------------------------|
--6--6--6--6--6--6--6--6--|--6--6--6--6--6--6--6--6--|
--5--5--5--5--5--5--5--5--|--5--5--5--5--5--5--5--5--|
--------------------------|--------------------------|
--3--3--3--3--3--3--3--3--|--3--3--3--3--3--3--3--3--|
--------------------------|--------------------------|


  E  E  E  E  E  E  E  E     S  S E  E  E  E  E  E  E   
--------------------------|----------------------------|
--8--8--8--8--8--8--8--8--|--8s-x----------------------|
--7--7--7--7--7--7--7--7--|--7s-x-x--x--x-----x--x-----|
--------------------------|-------x--x--x-----x--x-----|
--5--5--5--5--5--5--5--5--|--5s-x-x--x--x-----x--x-----|
--------------------------|----------------------------|


  PM PM PM PM PM PM PM PM    PM PM PM PM PM PM PM PM  
  E  E  E  E  E  E  E  E     E  E  E  E  E  E  E  E   
--------------------------|--------------------------|
--------------------------|--------------------------|
--9--9--9--9--9--9--9--9--|--9--9--9--9--9--9--9--9--|
--9--9--9--9--9--9--9--9--|--9--9--9--9--9--9--9--9--|
--7--7--7--7--7--7--7--7--|--7--7--7--7--7--7--7--7--|
--------------------------|--------------------------|


  PM PM PM PM PM PM PM PM    PM PM PM PM PM PM PM PM  
  E  E  E  E  E  E  E  E     E  E  E  E  E  E  E  E   
--------------------------|--------------------------|
--------------------------|--------------------------|
--7--7--7--7--7--7--7--7--|--7--7--7--7--7--7--7--7--|
--7--7--7--7--7--7--7--7--|--7--7--7--7--7--7--7--7--|
--5--5--5--5--5--5--5--5--|--5--5--5--5--5--5--5--5--|
--------------------------|--------------------------|


  PM PM PM PM PM PM PM PM    PM PM PM PM PM           
  E  E  E  E  E  E  E  E     E  E  E  E  E  E  E  E   
--------------------------|--------------------------|
--------------------------|--------------------------|
--5--5--5--5--5--5--5--5--|--5--5--5--5--5--5--5--5--|
--5--5--5--5--5--5--5--5--|--5--5--5--5--5--5--5--5--|
--3--3--3--3--3--3--3--3--|--3--3--3--3--3--3--3--3--|
--------------------------|--------------------------|


  E  E  E  E  E  E  E  E     E  E  E  E  E  E  E  E     E  E  E   E  H         
--------------------------|--------------------------|------------------------|
--------------------------|--------------------------|------------------------|
--7--7--7--7--7--7--7--7--|--9--9--9--9--9--9--9--9--|--9--9--9s--x-----------|
--7--7--7--7--7--7--7--7--|--9--9--9--9--9--9--9--9--|--9--9--9s--x-----------|
--5--5--5--5--5--5--5--5--|--7--7--7--7--7--7--7--7--|--7--7--7s--x-----------|
--------------------------|--------------------------|------------------------|


  H        Q.     E     E  E  E   E  H           H        Q.     E   
---------------------|------------------------|---------------------|
---------------------|------------------------|---------------------|
------------------9--|--7--7--7s--x-----------|------------------7--|
------------------9--|--7--7--7s--x-----------|------------------7--|
------------------7--|--5--5--5s--x-----------|------------------5--|
---------------------|------------------------|---------------------|


  E  E  E   E  H           E  E  E  E  E  E  E  E     E   E  E  E  E  E  E  E   
------------------------|--------------------------|---------------------------|
------------------------|--------------------------|---------------------------|
--5--5--5s--x-----------|--------5--5--5--5--5--5--|--5s--7--7--7--7--7--7--7--|
--5--5--5s--x-----------|--------5--5--5--5--5--5--|--5s--7--7--7--7--7--7--7--|
--3--3--3s--x-----------|--------3--3--3--3--3--3--|--3s--5--5--5--5--5--5--5--|
------------------------|--------------------------|---------------------------|


  E   E  E  E  E  E  E  E      E   E   E   E   E   E   E   E   
---------------------------|----------------------------------|
---------------------------|--10--10--10--10--10--10--10--10--|
--7s--9--9--9--9--9--9--9--|---9---9---9---9---9---9---9---9--|
--7s--9--9--9--9--9--9--9--|----------------------------------|
--5s--7--7--7--7--7--7--7--|---7---7---7---7---7---7---7---7--|
---------------------------|----------------------------------|


   E   E   E   E   E   E   E   E     E  E  E  E  E  E  E  E   
----------------------------------|--------------------------|
--10--10--10--10--10--10--10--10--|--8--8--8--8--8--8--8--8--|
---9---9---9---9---9---9---9---9--|--7--7--7--7--7--7--7--7--|
----------------------------------|--------------------------|
---7---7---7---7---7---7---7---7--|--5--5--5--5--5--5--5--5--|
----------------------------------|--------------------------|


  E  E  E  E  E  E  E  E     E  E  E  E  E  E  E  E   
--------------------------|--------------------------|
--8--8--8--8--8--8--8--8--|--6--6--6--6--6--6--6--6--|
--7--7--7--7--7--7--7--7--|--5--5--5--5--5--5--5--5--|
--------------------------|--------------------------|
--5--5--5--5--5--5--5--5--|--3--3--3--3--3--3--3--3--|
--------------------------|--------------------------|


  E  E  E  E  E  E  E  E     E.  E.  E.  E.  E.  S    E  Q    E  E  E  E  E   
--------------------------|------------------------|-------------------------|
--6--6--6--6--6--6--6--6--|------------------------|-------------------------|
--5--5--5--5--5--5--5--5--|----------------------x-|-------------------------|
--------------------------|--3-------3---x---3-----|-----5----5--5--5--5--5--|
--3--3--3--3--3--3--3--3--|--3-------3-------3-----|-----5----5--5--5--5--5--|
--------------------------|--3---x---3-------3-----|-----5----5--5--5--5--5--|


   E   E   E   E   E   E   E   E      E   E   E   E   E   E   E   E   
----------------------------------|----------------------------------|
--10--10--10--10--10--10--10--10--|--10--10--10--10--10--10--10--10--|
---9---9---9---9---9---9---9---9--|---9---9---9---9---9---9---9---9--|
----------------------------------|----------------------------------|
---7---7---7---7---7---7---7---7--|---7---7---7---7---7---7---7---7--|
----------------------------------|----------------------------------|


  E  E  E  E  E  E  E  E     E  E  E  E  E  E  E  E   
--------------------------|--------------------------|
--8--8--8--8--8--8--8--8--|--8--8--8--8--8--8--8--8--|
--7--7--7--7--7--7--7--7--|--7--7--7--7--7--7--7--7--|
--------------------------|--------------------------|
--5--5--5--5--5--5--5--5--|--5--5--5--5--5--5--5--5--|
--------------------------|--------------------------|


  E  E  E  E  E  E  E  E     E  E  E  E  E  E  E  E     E.  E.  E.  E.  E.  S  
--------------------------|--------------------------|------------------------|
--6--6--6--6--6--6--6--6--|--6--6--6--6--6--6--6--6--|------------------------|
--5--5--5--5--5--5--5--5--|--5--5--5--5--5--5--5--5--|----------------------x-|
--------------------------|--------------------------|--3-------3---x---3-----|
--3--3--3--3--3--3--3--3--|--3--3--3--3--3--3--3--3--|--3-------3-------3-----|
--------------------------|--------------------------|--3---x---3-------3-----|


                            PM PM PM PM PM PM PM PM    PM PM PM PM PM PM PM PM  
  E  Q    E  E  E  E  E     E  E  E  E  E  E  E  E     E  E  E  E  E  E  E  E   
-------------------------|--------------------------|--------------------------|
-------------------------|--------------------------|--------------------------|
-------------------------|--9--9--9--9--9--9--9--9--|--9--9--9--9--9--9--9--9--|
-----5----5--5--5--5--5--|--9--9--9--9--9--9--9--9--|--9--9--9--9--9--9--9--9--|
-----5----5--5--5--5--5--|--7--7--7--7--7--7--7--7--|--7--7--7--7--7--7--7--7--|
-----5----5--5--5--5--5--|--------------------------|--------------------------|


  PM PM PM PM PM PM PM PM    PM PM PM PM PM PM PM PM  
  E  E  E  E  E  E  E  E     E  E  E  E  E  E  E  E   
--------------------------|--------------------------|
--------------------------|--------------------------|
--7--7--7--7--7--7--7--7--|--7--7--7--7--7--7--7--7--|
--7--7--7--7--7--7--7--7--|--7--7--7--7--7--7--7--7--|
--5--5--5--5--5--5--5--5--|--5--5--5--5--5--5--5--5--|
--------------------------|--------------------------|


  PM PM PM PM PM PM PM PM    PM PM PM PM PM           
  E  E  E  E  E  E  E  E     E  E  E  E  E  E  E  E   
--------------------------|--------------------------|
--------------------------|--------------------------|
--5--5--5--5--5--5--5--5--|--5--5--5--5--5--5--5--5--|
--5--5--5--5--5--5--5--5--|--5--5--5--5--5--5--5--5--|
--3--3--3--3--3--3--3--3--|--3--3--3--3--3--3--3--3--|
--------------------------|--------------------------|


  E  E  E  E  E  E  E  E     E  E  E  E  E  E  E  E     E  E  E   E  H         
--------------------------|--------------------------|------------------------|
--------------------------|--------------------------|------------------------|
--7--7--7--7--7--7--7--7--|--9--9--9--9--9--9--9--9--|--9--9--9s--x-----------|
--7--7--7--7--7--7--7--7--|--9--9--9--9--9--9--9--9--|--9--9--9s--x-----------|
--5--5--5--5--5--5--5--5--|--7--7--7--7--7--7--7--7--|--7--7--7s--x-----------|
--------------------------|--------------------------|------------------------|


  H        Q.     E     E  E  E   E  H           H        Q.     E   
---------------------|------------------------|---------------------|
---------------------|------------------------|---------------------|
------------------9--|--7--7--7s--x-----------|------------------7--|
------------------9--|--7--7--7s--x-----------|------------------7--|
------------------7--|--5--5--5s--x-----------|------------------5--|
---------------------|------------------------|---------------------|


  E  E  E   E  H           E  E  E  E  E  E  E  E     E   E  E  E  E  E  E  E   
------------------------|--------------------------|---------------------------|
------------------------|--------------------------|---------------------------|
--5--5--5s--x-----------|--------5--5--5--5--5--5--|--5s--7--7--7--7--7--7--7--|
--5--5--5s--x-----------|--------5--5--5--5--5--5--|--5s--7--7--7--7--7--7--7--|
--3--3--3s--x-----------|--------3--3--3--3--3--3--|--3s--5--5--5--5--5--5--5--|
------------------------|--------------------------|---------------------------|


  E   E  E  E  E  E  E  E      E   E   E   E   E   E   E   E   
---------------------------|----------------------------------|
---------------------------|--10--10--10--10--10--10--10--10--|
--7s--9--9--9--9--9--9--9--|---9---9---9---9---9---9---9---9--|
--7s--9--9--9--9--9--9--9--|----------------------------------|
--5s--7--7--7--7--7--7--7--|---7---7---7---7---7---7---7---7--|
---------------------------|----------------------------------|


   E   E   E   E   E   E   E   E     E  E  E  E  E  E  E  E   
----------------------------------|--------------------------|
--10--10--10--10--10--10--10--10--|--8--8--8--8--8--8--8--8--|
---9---9---9---9---9---9---9---9--|--7--7--7--7--7--7--7--7--|
----------------------------------|--------------------------|
---7---7---7---7---7---7---7---7--|--5--5--5--5--5--5--5--5--|
----------------------------------|--------------------------|


  E  E  E  E  E  E  E  E     E  E  E  E  E  E  E  E   
--------------------------|--------------------------|
--8--8--8--8--8--8--8--8--|--6--6--6--6--6--6--6--6--|
--7--7--7--7--7--7--7--7--|--5--5--5--5--5--5--5--5--|
--------------------------|--------------------------|
--5--5--5--5--5--5--5--5--|--3--3--3--3--3--3--3--3--|
--------------------------|--------------------------|


  E  E  E  E  E  E  E  E     E.  E.  E.  E.  E.  S    E  Q    E  E  E  E  E   
--------------------------|------------------------|-------------------------|
--6--6--6--6--6--6--6--6--|------------------------|-------------------------|
--5--5--5--5--5--5--5--5--|----------------------x-|-------------------------|
--------------------------|--3-------3---x---3-----|-----5----5--5--5--5--5--|
--3--3--3--3--3--3--3--3--|--3-------3-------3-----|-----5----5--5--5--5--5--|
--------------------------|--3---x---3-------3-----|-----5----5--5--5--5--5--|


   E   E   E   E   E   E   E   E      E   E   E   E   E   E   E   E   
----------------------------------|----------------------------------|
--10--10--10--10--10--10--10--10--|--10--10--10--10--10--10--10--10--|
---9---9---9---9---9---9---9---9--|---9---9---9---9---9---9---9---9--|
----------------------------------|----------------------------------|
---7---7---7---7---7---7---7---7--|---7---7---7---7---7---7---7---7--|
----------------------------------|----------------------------------|


  E  E  E  E  E  E  E  E     E  E  E  E  E  E  E  E   
--------------------------|--------------------------|
--8--8--8--8--8--8--8--8--|--8--8--8--8--8--8--8--8--|
--7--7--7--7--7--7--7--7--|--7--7--7--7--7--7--7--7--|
--------------------------|--------------------------|
--5--5--5--5--5--5--5--5--|--5--5--5--5--5--5--5--5--|
--------------------------|--------------------------|


  E  E  E  E  E  E  E  E     E  E  E  E  E  E  E  E     E.  E.  E.  E.  E.  S  
--------------------------|--------------------------|------------------------|
--6--6--6--6--6--6--6--6--|--6--6--6--6--6--6--6--6--|------------------------|
--5--5--5--5--5--5--5--5--|--5--5--5--5--5--5--5--5--|----------------------x-|
--------------------------|--------------------------|--3-------3---x---3-----|
--3--3--3--3--3--3--3--3--|--3--3--3--3--3--3--3--3--|--3-------3-------3-----|
--------------------------|--------------------------|--3---x---3-------3-----|


  E  Q    E  E  E  E  E     E  E  E  E  E   E  Q       H        E  E  E  E   
-------------------------|--------------------------|-----------------------|
-------------------------|--------------------------|-----------------------|
-------------------------|--------------------------|-----------------------|
-----5----5--5--5--5--5--|--3--3--3--3--3s--x-------|-----------3--3--3--3--|
-----5----5--5--5--5--5--|--3--3--3--3--3s--x-------|-----------3--3--3--3--|
-----5----5--5--5--5--5--|--3--3--3--3--3s--x-------|-----------3--3--3--3--|


  E  E  E  E  E   E  Q       H        E  E  E  E     E  E  E  E  E   E  Q     
--------------------------|-----------------------|--------------------------|
--------------------------|-----------------------|--------------------------|
--------------------------|-----------------------|--------------------------|
--5--5--5--5--5s--x-------|-----------5--5--5--5--|--7--7--7--7--7s--x-------|
--5--5--5--5--5s--x-------|-----------5--5--5--5--|--7--7--7--7--7s--x-------|
--5--5--5--5--5s--x-------|-----------5--5--5--5--|--7--7--7--7--7s--x-------|


  H        E  E  E  E     Q.     Q.     E     W                 
-----------------------|-------------------|-------------------|
-----------------------|-------------------|-------------------|
-----------------------|-------------------|-------------------|
-----------7--7--7--7--|--5------5------3--|--L----------------|
-----------7--7--7--7--|--5------5------3--|--L----------------|
-----------7--7--7--7--|--5------5------3--|--L----------------|


  E  E  E  E  E   E  Q       H        E  E  E  E     E  E  E  E  E   E  Q     
--------------------------|-----------------------|--------------------------|
--------------------------|-----------------------|--------------------------|
--------------------------|-----------------------|--------------------------|
--3--3--3--3--3s--x-------|-----------3--3--3--3--|--5--5--5--5--5s--x-------|
--3--3--3--3--3s--x-------|-----------3--3--3--3--|--5--5--5--5--5s--x-------|
--3--3--3--3--3s--x-------|-----------3--3--3--3--|--5--5--5--5--5s--x-------|


  H        E  E  E  E     E  E  E  E  E   E  Q       H        E  E  E  E   
-----------------------|--------------------------|-----------------------|
-----------------------|--------------------------|-----------------------|
-----------------------|--------------------------|-----------------------|
-----------5--5--5--5--|--7--7--7--7--7s--x-------|-----------7--7--7--7--|
-----------5--5--5--5--|--7--7--7--7--7s--x-------|-----------7--7--7--7--|
-----------5--5--5--5--|--7--7--7--7--7s--x-------|-----------7--7--7--7--|


  Q.     Q.     E     W                    W                 
-------------------|-------------------|--------------------|
-------------------|-------------------|--10----------------|
-------------------|-------------------|---9----------------|
--5------5------3--|--L----------------|--------------------|
--5------5------3--|--L----------------|---7----------------|
--5------5------3--|--L----------------|--------------------|


                v   ^                                      v  ^   
  H.            E   E     W                   H.           E  E   
-----------------------|-------------------|---------------------|
--L------------10--10--|--8----------------|--L------------8--8--|
--L-------------9---9--|--7----------------|--L------------7--7--|
--L--------------------|-------------------|---------------------|
--L-------------7---7--|--5----------------|--L------------5--5--|
-----------------------|-------------------|---------------------|


                                   v  ^                       
  W                   H.           E  E     W                 
-------------------|---------------------|-------------------|
--6----------------|--L------------6--6--|--8----------------|
--5----------------|--L------------5--5--|--7----------------|
-------------------|---------------------|-------------------|
--3----------------|--L------------3--3--|--5----------------|
-------------------|---------------------|-------------------|


  W                    E  E   E  E   E  E   E  E   
-------------------|------------------------------|
--L----------------|--10-----10-----10-----10-----|
--L----------------|---9------9------9------9-----|
-------------------|------------------------------|
--L----------------|---7------7------7------7-----|
-------------------|------------------------------|


   E  E   E  E   E  E   E  E     E  E  E  E  E  E  E  E   
------------------------------|--------------------------|
--10-----10-----10-----10-----|--8-----8-----8-----8-----|
---9------9------9------9-----|--7-----7-----7-----7-----|
------------------------------|--------------------------|
---7------7------7------7-----|--5-----5-----5-----5-----|
------------------------------|--------------------------|


  E  E  E  E  E  E  E  E     E  E  E  E  E  E  E  E   
--------------------------|--------------------------|
--8-----8-----8-----8-----|--6-----6-----6-----6-----|
--7-----7-----7-----7-----|--5-----5-----5-----5-----|
--------------------------|--------------------------|
--5-----5-----5-----5-----|--3-----3-----3-----3-----|
--------------------------|--------------------------|


  E  E  E  E  E  E  E  E     E  E  E  E  E  E  E  E   
--------------------------|--------------------------|
--6-----6-----6-----6-----|--8-----8-----8-----8-----|
--5-----5-----5-----5-----|--7-----7-----7-----7-----|
--------------------------|--------------------------|
--3-----3-----3-----3-----|--5-----5-----5-----5-----|
--------------------------|--------------------------|


  E  E  E  E  E  E  E  E      E  E   E  E   E  E   E  E   
--------------------------|------------------------------|
--8-----8-----8-----8-----|--10-----10-----10-----10-----|
--7-----7-----7-----7-----|---9------9------9------9-----|
--------------------------|------------------------------|
--5-----5-----5-----5-----|---7------7------7------7-----|
--------------------------|------------------------------|


   E  E   E  E   E  E   E  E     E  E  E  E  E  E  E  E   
------------------------------|--------------------------|
--10-----10-----10-----10-----|--8-----8-----8-----8-----|
---9------9------9------9-----|--7-----7-----7-----7-----|
------------------------------|--------------------------|
---7------7------7------7-----|--5-----5-----5-----5-----|
------------------------------|--------------------------|


  E  E  E  E  E  E  E  E     E  E  E  E  E  E  E  E   
--------------------------|--------------------------|
--8-----8-----8-----8-----|--6-----6-----6-----6-----|
--7-----7-----7-----7-----|--5-----5-----5-----5-----|
--------------------------|--------------------------|
--5-----5-----5-----5-----|--3-----3-----3-----3-----|
--------------------------|--------------------------|


  E  E  E  E  E  E  E  E                  E   E   E   E   E   E   E   E   
--------------------------|-----|-----|----------------------------------|
--6-----6-----6-----6-----|-----|-----|--10--10--10--10--10--10--10--10--|
--5-----5-----5-----5-----|-----|-----|---9---9---9---9---9---9---9---9--|
--------------------------|-----|-----|----------------------------------|
--3-----3-----3-----3-----|-----|-----|---7---7---7---7---7---7---7---7--|
--------------------------|-----|-----|----------------------------------|


   E   E   E   E   E   E   E   E     E  E  E  E  E  E  E  E   
----------------------------------|--------------------------|
--10--10--10--10--10--10--10--10--|--8--8--8--8--8--8--8--8--|
---9---9---9---9---9---9---9---9--|--7--7--7--7--7--7--7--7--|
----------------------------------|--------------------------|
---7---7---7---7---7---7---7---7--|--5--5--5--5--5--5--5--5--|
----------------------------------|--------------------------|


  E  E  E  E  E  E  E  E     E  E  E  E  E  E  E  E   
--------------------------|--------------------------|
--8--8--8--8--8--8--8--8--|--6--6--6--6--6--6--6--6--|
--7--7--7--7--7--7--7--7--|--5--5--5--5--5--5--5--5--|
--------------------------|--------------------------|
--5--5--5--5--5--5--5--5--|--3--3--3--3--3--3--3--3--|
--------------------------|--------------------------|


  E  E  E  E  E  E  E  E     E.  E.  E.  E.  E.  S    E  Q    E  E  E  E  E   
--------------------------|------------------------|-------------------------|
--6--6--6--6--6--6--6--6--|------------------------|-------------------------|
--5--5--5--5--5--5--5--5--|----------------------x-|-------------------------|
--------------------------|--3-------3---x---3-----|-----5----5--5--5--5--5--|
--3--3--3--3--3--3--3--3--|--3-------3-------3-----|-----5----5--5--5--5--5--|
--------------------------|--3---x---3-------3-----|-----5----5--5--5--5--5--|


   E   E   E   E   E   E   E   E      E   E   E   E   E   E   E   E   
----------------------------------|----------------------------------|
--10--10--10--10--10--10--10--10--|--10--10--10--10--10--10--10--10--|
---9---9---9---9---9---9---9---9--|---9---9---9---9---9---9---9---9--|
----------------------------------|----------------------------------|
---7---7---7---7---7---7---7---7--|---7---7---7---7---7---7---7---7--|
----------------------------------|----------------------------------|


  E  E  E  E  E  E  E  E     E  E  E  E  E  E  E  E   
--------------------------|--------------------------|
--8--8--8--8--8--8--8--8--|--8--8--8--8--8--8--8--8--|
--7--7--7--7--7--7--7--7--|--7--7--7--7--7--7--7--7--|
--------------------------|--------------------------|
--5--5--5--5--5--5--5--5--|--5--5--5--5--5--5--5--5--|
--------------------------|--------------------------|


  E  E  E  E  E  E  E  E     E  E  E  E  E  E  E  E     E.  E.  E.  E.  E.  S  
--------------------------|--------------------------|------------------------|
--6--6--6--6--6--6--6--6--|--6--6--6--6--6--6--6--6--|------------------------|
--5--5--5--5--5--5--5--5--|--5--5--5--5--5--5--5--5--|----------------------x-|
--------------------------|--------------------------|--3-------3---x---3-----|
--3--3--3--3--3--3--3--3--|--3--3--3--3--3--3--3--3--|--3-------3-------3-----|
--------------------------|--------------------------|--3---x---3-------3-----|


  E  Q    E  E  E  E  E      W                   W                 
-------------------------|--------------------|-------------------|
-------------------------|--10----------------|--L----------------|
-------------------------|---9----------------|--L----------------|
-----5----5--5--5--5--5--|--------------------|-------------------|
-----5----5--5--5--5--5--|---7----------------|--L----------------|
-----5----5--5--5--5--5--|--------------------|-------------------|


  W                   W                   W                 
-------------------|-------------------|--L----------------|
--L----------------|--L----------------|-------------------|
--L----------------|--L----------------|--L----------------|
-------------------|-------------------|-------------------|
--L----------------|--L----------------|--L----------------|
-------------------|-------------------|-------------------|


-------------------||
-------------------||
-------------------||
-------------------||
-------------------||
-------------------||


Duration Legend
---------------
W - whole
H - half
Q - quarter
E - 8th
S - 16th
T - 32nd
X - 64th
. - note dotted
|-n-|  - n-tuplets


Tablature Legend
----------------
L - tied note
x - dead note
g - grace note
(n) - ghost note
> - accentuded note
NH - natural harmonic
AH - artificial harmonic
TH - tapped harmonic
SH - semi harmonic
PH - pitch harmonic
h - hammer on
p - pull off
b - bend
br - bendRelease
pb - preBend
pbr - preBendRelease
brb - bendReleaseBend
\n/ - tremolo bar dip
\n - tremolo bar dive
-/n - tremolo bar Release up
/n\ - tremolo bar inverted dip
/n - tremolo bar return
-\n - tremolo bar Release down
S - shift slide
s - legato slide
/ -  slide into from below or out of upwards
\ -  slide into from above or out of downwards
~ - vibrato
W - wide vibrato
tr - trill
TP - tremolo picking
T - tapping
S - slap
P - pop
< - fade in
^ - brush up
v - brush down
Добавлено: 26.03.2012
Другие материалы по этой песне:

Страница создана 22.03.2012
http://primanota.ru/breaking-the-scene/stuck-between-the-lies-chords.htm
Привет, Гость.
Предлагаем пройти революционный курс по гитаре.
Подарок от PrimaNota.Ru, забирай!