PrimaNota.ru - самый крупный в мире бесплатный архив песенных текстов, аккордов, табулатур и нот


Breaking Point - How Does It Feel - текст песни, таба, видео

Регистрация Запомнить меня
Войти через:  Facebook Google Twitter Vk Yandex Mail.ru

Breaking Point - How Does It Feel - текст песни, таба, видео

Печатать
Просмотров: 152
----------------------------------------------------------------------------
                             HOW DOES IT FEEL - Breaking Point
----------------------------------------------------------------------------
Tabbed by: lil_z_04
Email:

Tuning: Drop D

Ok this is my first tab so dont be too critical!

Intro/Verse
e|---------------------------------------------------|
B|---------------------------------------------------|
G|------3--------------------------------------------|
D|----3---3----------3----------4-----------1--------|
A|--1--------------3---3------4---4-------1---1------|
E|--------------3-----------4-----------1------------|

Chorus
e|-------------------------------------|
B|-------------------------------------|               
G|--3-3-3------------------------------|
D|--3-3-3--3----3-3---4-4-4--1-1---2X--|
A|--1-1-1--3----3-3---4-4-4--1-1-------|
E|---------3----3-3---4-4-4--1-1-------|

e|---------------------------------------------------|
B|---------------------------------------------------|
G|-3-3-3-----------------------3-3-3-----------------|
D|-3-3-3--4-4-4--6-6-6--1-1-1--3-3-3---3-3-3--4~-----|
A|-1-1-1--4-4-4--6-6-6--1-1-1--1-1-1---3-3-3--4~-----|
E|--------4-4-4--6-6-6--1-1-1----------3-3-3--4~-----|

Verse 2
e|---------------------------------------------------|
B|---------------------------------------------------|
G|-3-3-3-3-------------------------------------------|
D|-3-3-3-3--3-3-3-3--4-4-4-4--1-1-1-1----10X---------|
A|-1-1-1-1--3-3-3-3--4-4-4-4--1-1-1-1----------------|
E|----------3-3-3-3--4-4-4-4--1-1-1-1----------------|
   . . . .  . . . .  . . . .  . . . .

Chorus

Bridge 2X
e|--------------------------------------------------------------------|
B|--------------------------------------------------------------------|
G|--------------------------------------------------------------------|
D|-8-8-6-8--11-11-11--8-8-6-8--9-9-9--8-8-6-8--6-4---4-4-4--6-6-6-6---|
A|-8-8-6-8--11-11-11--8-8-6-8--9-9-9--8-8-6-8--6-4---4-4-4--6-6-6-6---|
E|-8-8-6-8--11-11-11--8-8-6-8--9-9-9--8-8-6-8--6-4---4-4-4--6-6-6-6---|

e|--------------------------------------------------|
B|--------------------------------------------------|
G|-----3--------------------------------------------|
D|---3---3-------4---------3---------1-------3X-----|
A|-1-----------4---4-----3---3-----1---1------------|
E|-----------4---------3---------1------------------|


Chorus



e|--------------------------------------------------------------|
B|--------------------------------------------------------------|
G|--------------------------------------------------------------|
D|-8-6-4-3--6~1~--8-6-4-3--4~6~--8-6-4-3--6~1~--8-6-4-3--6~-----|
A|-8-6-4-3--6~1~--8-6-4-3--4~6~--8-6-4-3--6~1~--8-6-4-3--6~-----|
E|-8-6-4-3--6~1~--8-6-4-3--4~6~--8-6-4-3--6~1~--8-6-4-3--6~-----|

Outro
e|------------------------------------------------------|
B|------------------------------------------------------|
G|-----3------------------------------------------------|
D|---3---3-------3----------4----------1---------2X-----|
A|-1-----------3---3------4---4------1---1--------------|
E|-----------3----------4----------1--------------------|

| .  palm mute
| /  slide up
| \  slide down
| h  hammer-on
| p  pull-off
| ~  vibrato
| +  harmonic
| x  Mute note
============================================================================
Добавлено: 09.05.2012
Другие материалы по этой песне:

Страница создана 22.02.2012
http://primanota.ru/breaking-point/how-does-it-feel-chords.htm
Привет, Гость.
Предлагаем пройти революционный курс по гитаре.
Подарок от PrimaNota.Ru, забирай!