PrimaNota.ru - самый крупный в мире бесплатный архив песенных текстов, аккордов, табулатур и нот


Breaking Point - Falling Down - текст песни, таба, бас-таба, видео

Регистрация Запомнить меня
Войти через:  Facebook Google Twitter Vk Yandex Mail.ru

Breaking Point - Falling Down - текст песни, таба, бас-таба, видео

Печатать
Просмотров: 319
Уроки эстрадного вокала в Санкт-Петербурге
-------------------------------------------------------------------------------
  FALLING DOWN - Breaking Point
-------------------------------------------------------------------------------
Tabbed by: GIcez
Email: stingray0@hotmail.com

Tuning: Drop C --C G C F A D--
I really like this song and wanted to play it, but I don't believe the other tab on U-G 
very accurate.

I've never tabbed by ear before, so I thought this would be a good song to start with. 
just the intro, but I'll be working on the rest.

Intro
Guitar 1
D|---------------------------------------------------------------------------|
A|---------------------------------------------------------------------------|
F|---------------------------------------------------------------------------|
C|----9-----9----9-------12-----12----12-----5-----5----5----4-4445-5557-7---|x2
G|-7-----7-----7-----10-----10-----10-----3-----3-----3------2-2223-3335-5---|
C|-7-----7-----7-----10-----10-----10-----3-----3-----3----------------------|

Guitar 2
D|---------------------------------------------------------------------------|
A|---------------------------------------------------------------------------|
F|------16~----17-16-----------16--h17-/19-\17-16-----16--17--19--17--16-----|
C|--/17-----17--------17~--/17---------------------17--------------------17--|
G|---------------------------------------------------------------------------|
C|---------------------------------------------------------------------------|

Guitar 1
D|---------------------------------------------------------------------------|
A|---------------------------------------------------------------------------|
F|---------------------------------------------------------------------------|
C|--------2---3------5/7-----------------------------------------------------|x4
G|---2-22-2-3-3--333-3/5-----------------------------------------------------|
C|---2-22-2-3-3--333---------------------------------------------------------|
     . ..   .    ...

Guitar 2 w/ Phaser
D|---------------------------------------------------------------------------|
A|---------------------------------------------------------------------------|
F|---------------------------------------------------------------------------|
C|---9~---9/10--12--10--9~---9/10--12--10--9~---9/10--12--10--9--------------|
G|---------------------------------------------------------------10--12~-----|
C|---------------------------------------------------------------------------|


************************************

| /   slide up
| \   slide down
| h   hammer-on
| p   pull-off
| ~   vibrato
| +   harmonic
| x   Mute note
| b   Bend
| pb  Pre-bend
| br  Bend release
| pbr Pre-bend release
| brb Bend release bend

************************************
Добавлено: 15.03.2012
Другие материалы по этой песне:

Страница создана 15.03.2012
http://primanota.ru/breaking-point/falling-down-chords.htm
Привет, Гость.
Предлагаем пройти революционный курс по гитаре.
Подарок от PrimaNota.Ru, забирай!