PrimaNota.ru - самый крупный в мире бесплатный архив песенных текстов, аккордов, табулатур и нот


Breaking Point - Condemnation - таба, видео

Регистрация Запомнить меня
Войти через:  Facebook Google Twitter Vk Yandex Mail.ru

Breaking Point - Condemnation - таба, видео

Печатать
Просмотров: 94
-------------------------------------------------------------------------------
                             Condemnation - Breaking x Point
-------------------------------------------------------------------------------
Tabbed by: Cameron Harrison
Email: cam_harri@hotmail.com    


Tuning: D#-G#-C#-F#-A#-D#


INTRO

D#|--------------------|-----------------|-------------------------|
A#|--------------------|-----------------|-------------------------|
F#|-----------3/4-3----|-----------------|--10-9-10---x-x--5--7----|
C#|--2--------3/4-3--2-|-----------------|--10-9-10---x-x--5--7----|
G#|--2--------1/2-1--2-|-x-x-x-x-x-x-x-x-|--8--7-8----x-x--3--5----|
D#|--0----x-x--------0-|-0-0-0-0-0-0-0-0-|-------------------------|
                         Palm mute-                                 
D#|--------------------|-----------------|-------------------------|
A#|--------------------|-----------------|-------------------------|
F#|-----------3/4-3----|-----------------|--7/9-10-x-x-5-7---------|
C#|--2--------3/4-3--2-|-----------------|--7/9-10-x-x-5-7---------|
G#|--2--------1/2-1--2-|-x-x-x-x-x-x-x-x-|--5/7-8--x-x-3-5---------|
D#|--0----x-x--------0-|-0-0-0-0-0-0-0-0-|-------------------------|
                         Palm mute

Repeat the 6 bars 4 times then..

D#|--------------------|----------------|-------------------------|
A#|--------------------|----------------|-------------------------|
F#|-----------3/4-3----|----------------|--10-9-10---x-x--5--7----|
C#|--2--------3/4-3--2-|----------------|--10-9-10---x-x--5--7----|
G#|--2--------1/2-1--2-|-x--x--x--x--x--|--8--7-8----x-x--3--5----|
D#|--0----x-x--------0-|-0--0--0--0--0--|-------------------------|


VERSE

Play this fast
D#|----------------------------------------------------------|
A#|----------------------------------------------------------|
F#|----------------------------------------------------------|
C#|--2---------2---------2-----3---------3---------3---------|
G#|--2---------2---------2-----3---------3---------3---------|
D#|--0-x-x-x-x-0-x-x-x-x-0-x-x-1-x-x-x-x-1-x-x-x-x-1---------|

Then
D#|----------------------------------|----------------------------------|
A#|----------------------------------|----------------------------------|
F#|--------------9--7/9-x-5-x-x------|--------------9--7/9-x-5-x-x------|
C#|--2-----3-----9--7/9-x-5-x-x-3----|--2-----3-----9--7/9-x-5-x-x-3----|
G#|--2-----3-----7--5/7-x-3-x-x-3----|--2-----3-----7--5/7-x-3-x-x-3----|
D#|--0-x-x-1-x-x----------------1----|--0-x-x-1-x-x----------------1----|
Back to the verse 4x?


THEN
D#|-----------------------------|------------------------------------|
A#|-----------------------------|------------------------------------|
F#|-----------------------------|------------------------------------|
C#|--2--6--5--3-----------------|-2--3--6--5--x-----x-----x----------|
G#|--2--6--5--3-----------------|-2--3--6--5--x-----x-----x----------|
D#|--0--4--3--1-x-x-x-x-x-x-x-x-|-0--1--4--3--2-x-x-2-x-x-2-x--------|

Play this fast
D#|------------------------------|-----------------------------|
A#|------------------------------|-----------------------------|
F#|--4\3-------------------------|--4\3------------------------|
C#|--4\3--3-x-3--2--x-x-x-x-x-x--|--4\3--3-x-3--2--3--5--6-----|
G#|--2\1--3-x-3--2--x-x-x-x-x-x--|--2\1--3-x-3--2--3--5--6-----|
D#|-------1-x-1--0--0-0-0-0-0-x--|-------1-x-1--0--1--3--4-----|

D#|------------------------------|-----------------------------|
A#|------------------------------|-----------------------------|
F#|--4\3-------------------------|--4\3------------------------|
C#|--4\3--3-x-3--2--x-x-x-x-x-x--|--4\3--3-x-3--2--3--5--6-----|
G#|--2\1--3-x-3--2--x-x-x-x-x-x--|--2\1--3-x-3--2--3--5--6-----|
D#|-------1-x-1--0--0-0-0-0-0-x--|-------1-x-1--0--1--3--4-----| 

Play this till the end... the last bar changes to...
D#||-----------------------------|
A#||-----------------------------|
F#||--4\3------------------------|
C#||--4\3--3-x-3--2--3--6--5-----|
G#||--2\1--3-x-3--2--3--6--5-----|
D#||-------1-x-1--0--1--4--3-----| 



************************************

| /   slide up
| \   slide down
| h   hammer-on
| p   pull-off
| ~   vibrato
| +   harmonic
| x   Mute note
| b   Bend
| pb  Pre-bend
| br  Bend release
| pbr Pre-bend release
| brb Bend release bend
Добавлено: 15.07.2013
Другие материалы по этой песне:
  • Аккорды и текст

Страница создана 15.07.2013
http://primanota.ru/breaking-point/condemnation-chords.htm
Привет, Гость.
Предлагаем пройти революционный курс по гитаре.
Подарок от PrimaNota.Ru, забирай!