PrimaNota.ru - самый крупный в мире бесплатный архив песенных текстов, аккордов, табулатур и нот


Breaking Point - 27 - текст песни, таба, видео

Регистрация Запомнить меня
Войти через:  Facebook Google Twitter Vk Yandex Mail.ru

Breaking Point - 27 - текст песни, таба, видео

Печатать
Просмотров: 160
Artist: Breaking Point 
Song: 27
Album: Coming of Age 
Tuning: Standard
Email: LiquIdfir3@msn.com

Intro: 
 Dist. and palm muted
e|-------------------------------------------------|
B|-------------------------------------------------|
G|-------------------------------------------------|
D|---------------------------------9-9-9-9-9-9-9---|
A|---9-9-9-9-9-9-9--7-7-7-7-7-7-7--7-7-7-7-7-7-7---|
E|---7-7-7-7-7-7-7--5-5-5-5-5-5-5------------------|
   P.M.___________________________________________|

Verse: 
 dist. & some echo

e|-------------------------|
B|-------------------------|
G|-------------------------|
D|---12-12h14-12-11h12p11--|
A|-------------------------|
E|-------------------------|

Chorus: 

e|------------------------------------------|
B|------------------------------------------|
G|-----------------------------9-9-9-9-9-9--|
D|---9-9-9-9-9-9--7-7-7-7-7-7--9-9-9-9-9-9--|
A|---9-9-9-9-9-9--7-7-7-7-7-7--7-7-7-7-7-7--|
E|---7-7-7-7-7-7--5-5-5-5-5-5---------------|




Добавлено: 12.06.2012
Другие материалы по этой песне:
  • Аккорды и текст

Страница создана 12.05.2012
http://primanota.ru/breaking-point/27-chords.htm
Привет, Гость.
Предлагаем пройти революционный курс по гитаре.
Подарок от PrimaNota.Ru, забирай!