PrimaNota.ru - самый крупный в мире бесплатный архив песенных текстов, аккордов, табулатур и нот


Breaking Benjamin - So cold part two - таба, видео

Регистрация Запомнить меня
Войти через:  Facebook Google Twitter Vk Yandex Mail.ru

Breaking Benjamin - So cold part two - таба, видео

Печатать
Просмотров: 195



Artist: Breaking Benjamin
Song: So Cold [guitar left]
Album: We Are Not Alone
Tuning: Drop C (CGCFAd)
Tabbed By: Jason (simpleppl@hotmail.com)

---------------
Legend:
h - hammer on
p - pull off
^ - staccato
FB - full bend
HB - half bend
. - palm mute
---------------

  Intro (0:13)
d|-10----------10-------------------10-------------10-----------------
A|----10-13-------10-10h13-10----------10-10h13-------10-10h13-10-----
F|----------------------------12----------------------------------12--
C|--------------------------------------------------------------------
G|--------------------------------------------------------------------
C|--------------------------------------------------------------------

                                                                     (0:38)
d|-10--------10------------------10----------10-----------------||-10----------------10----------12
A|----10-13-----10-10h13-10---------10-13-------10-10h13-10-----||----10-10h13-10-------10-13-10---
F|--------------------------12------------------------------12--||----------------12---------------
C|--------------------------------------------------------------||---------------------------------
G|--------------------------------------------------------------||---------------------------------
C|--------------------------------------------------------------||---------------------------------
                                                                                                       2x


   Verse 1 (0:50)
d||-5-3-6-5-1----|-5-3-------||-5-3-6-5-1----5-3-6-5--|-5-3-6-5-8--5-3--------
A||-----------3--|-----6-5-3-||-----------3-----------|----------------6-5-3--
F||--------------|-----------||-----------------------|-----------------------
C||--------------|-----------||-----------------------|-----------------------
G||--------------|-----------||-----------------------|-----------------------
C||--------------|-----------||-----------------------|-----------------------
                3x           2x


  Chorus (1:28)
d|------------------------------------------|--------------------------------------
A|---11--11---------------------------------|---11--11-----------------------------
F|---10--10-----^----^----^----^------------|---10--10-----^----^----^----^--------
C|-8-8---8----0-0--0-0--0-0--0-0--10-10-10--|-8-8---8----0-0--0-0--0-0--0-0--10-7--
G|-8-----8----0-0--0-0--0-0--0-0--10-10-10--|-8-----8----0-0--0-0--0-0--0-0--10-7--
C|-8-----8----0-0--0-0--0-0--0-0--10-10-10--|-8-----8----0-0--0-0--0-0--0-0--10-7--


d|-----------------------------------------|-------------------------
A|---11--11--------------------------------|---11--11------13--13----
F|---10--10---7777-9999-10101010-12121212--|---10--10------12--12----
C|-8-8---8---------------------------------|-8-8---8----10-10--10----
G|-8-----8----5555-7777-8-8-8-8--10101010--|-8-----8----10-----10----
C|-8-----8---------------------------------|-8-----8----10-----10----



  Tag (1:53)
d|-10--------------10----------12--
A|----10-13-10--------10-13-10-----
F|-------------12------------------
C|---------------------------------
G|---------------------------------
C|---------------------------------



  Verse 2 (2:00)
d||-5-3-6-5-1----5-3-------|-5-3-6-5-1----5-3-6-5--|-5-3-6-5-1----5-3--------
A||-----------3------6-5-3-|-----------3-----------|-----------3------6-5-3--
F||------------------------|-----------------------|-------------------------
C||------------------------|-----------------------|-------------------------
G||------------------------|-----------------------|-------------------------
C||------------------------|-----------------------|-------------------------


d||-5-3-6-5-1----5-3-6-5--|-5-3-6-5-8-----5-3--------
A||-----------3-----------|-----------10------6-5-3--
F||-----------------------|--------------------------
C||-----------------------|--------------------------
G||-----------------------|--------------------------
C||-----------------------|--------------------------




  Chorus 2 (2:31)
d|------------------------------------------|--------------------------------------
A|---11--11---------------------------------|---11--11-----------------------------
F|---10--10-----^----^----^----^------------|---10--10-----^----^----^----^--------
C|-8-8---8----0-0--0-0--0-0--0-0--10-10-10--|-8-8---8----0-0--0-0--0-0--0-0--10-7--
G|-8-----8----0-0--0-0--0-0--0-0--10-10-10--|-8-----8----0-0--0-0--0-0--0-0--10-7--
C|-8-----8----0-0--0-0--0-0--0-0--10-10-10--|-8-----8----0-0--0-0--0-0--0-0--10-7--


d|-----------------------------------------|--------------------------
A|---11--11--------------------------------|---11--11------13---------
F|---10--10---7777-9999-10101010-12121212--|---10--10------12---------
C|-8-8---8---------------------------------|-8-8---8----10-10----7-7--
G|-8-----8----5555-7777-8-8-8-8--10101010--|-8-----8----10-------7-7--
C|-8-----8---------------------------------|-8-----8----10-------7-7--



  Bridge (2:56)
d|------------------------------------------
A|------------------------------------------
F|------------------------------------------
C|------------------------------------------
G|-------5-------3-5-------5-------3--------
C|-0-3h5---0-3-5-----0-3h5---6-5-0---0-3-5--
                                           2x


  Solo (3:08)
d|-----------------------------------------------------------------------------------
A|-10--10-10-10-10-10-10--------------------------------------------------14b---14b--
F|-10--10-10-10-10-10-10--12b--10h12p10----------------10--10-12-12-14-12------------
C|-0---0--0--0--0--0--0-----------------12-10h12p10-10-------------------------------
G|-----------------------------------------------------------------------------------
C|-----------------------------------------------------------------------------------

d|-------------------------------------------------------        [ this may be wrong ]
A|-19b-19br-18---15-13p12p10-----------------------------
F|---------------------------13p12p10-10p9p7-7h9p7-(10)--
C|-------------------------------------------------------
G|-------------------------------------------------------
C|-------------------------------------------------------


                              FB                                        LR
D|----------------------------------------------------------------------10-|        [ this may be right ]
A|10-101010-10~10~10~10~-1010-----------------------------------10-10h13---|
F|10-101010-10~10~10~10~-1010-12(12)-12p10--10-------------10h12-----------|
C|--------------------------------------------12---12p10h12----------------|
G|-------------------------------------------------------------------------|
C|-------------------------------------------------------------------------|


   HB     FB      FB    FB       FB
D|--------10(10)-----10-15--(15)-15--15~--10-------------------------------|
A|-13(13)-13(13)--13-------------------------13p10--10---------------------|
F|------------------------------------------------12---12p10-12p10--10-----|
C|----------------------------------------------------------------12--12p10|
G|-------------------------------------------------------------------------|



  Chorus 3 (3:21)
d|------------------------------------------|--------------------------------------
A|---11--11---------------------------------|---11--11-----------------------------
F|---10--10-----^----^----^----^------------|---10--10-----^----^----^----^--------
C|-8-8---8----0-0--0-0--0-0--0-0--10-10-10--|-8-8---8----0-0--0-0--0-0--0-0--10-7--
G|-8-----8----0-0--0-0--0-0--0-0--10-10-10--|-8-----8----0-0--0-0--0-0--0-0--10-7--
C|-8-----8----0-0--0-0--0-0--0-0--10-10-10--|-8-----8----0-0--0-0--0-0--0-0--10-7--


d|-----------------------------------------|------------------------------
A|---11--11--------------------------------|---11--11------13--13---------
F|---10--10---7777-9999-10101010-12121212--|---10--10------12--12--13-13--
C|-8-8---8---------------------------------|-8-8---8----10-10--10--11-11--
G|-8-----8----5555-7777-8-8-8-8--10101010--|-8-----8----10-----10--11-11--
C|-8-----8---------------------------------|-8-----8----10-----10--11-11--



  Tag (3:46)  (3:52)
d|-----------|-----------------------------------------------------------------------
A|-----------|-10-----10-----10-----10-----8---------10-----10-----10-----10-----10--
F|-----------|-10-----10-----10-----10-----9-9-9-9---10-----10-----10-----10-----10--
C|-----------|-0--0-0-0--0-0-0--0-0-0--0-0-0---------0--0-0-0--0-0-0--0-0-0--0-0-0---
G|-----------|----pm.----...----...----...---.....------pm.----...----...----...-----
C|-----------|-----------------------------------------------------------------------



  End (3:58)
d|----------------------||---------------------
A|------------------10--||-----------------10--
F|-------^-------^--10--||------^-------^--10--
C|-0-0-0-0--0--0-0--0---||-0--0-0--0--0-0--0---
G|-0-0-0-0--0--0-0------||-0--0-0--0--0-0------
C|-0-0-0-0--0--0-0------||-0--0-0--0--0-0------
                                              3x
  (4:10)
d|----------------------------|-----------
A|------------------------10--|-----------
F|-777-101010-999-101010--10--|-7--10--9--
C|------------------------0---|-----------
G|-555-8-8-8--777-8-8-8-------|-5---------
C|-0--------------------------|-0---------
                             3x

Добавлено: 10.12.2013
Другие материалы по этой песне:
  • Аккорды и текст

Страница создана 10.12.2013
http://primanota.ru/breaking-benjamin/so-cold-part-two-chords.htm
Привет, Гость.
Предлагаем пройти революционный курс по гитаре.
Подарок от PrimaNota.Ru, забирай!