PrimaNota.ru - самый крупный в мире бесплатный архив песенных текстов, аккордов, табулатур и нот


Breaking Benjamin - So cold part one - таба, видео

Регистрация Запомнить меня
Войти через:  Facebook Google Twitter Vk Yandex Mail.ru

Breaking Benjamin - So cold part one - таба, видео

Печатать
Просмотров: 245



Artist: Breaking Benjamin
Song: So Cold [guitar right]
Album: We Are Not Alone
Tuning: Drop C (CGCFAd)
Tabbed By: Jason (simpleppl@hotmail.com)

--------------
Legend:
h - hammer on
^ - staccato
. - palm mute
--------------

  Intro (0:00)
d|--------------------------------      [ this part continues through ]
A|--------------------------------      [ the next section another 2x ]
F|--------------------------------
C|---------3---------------8---7--
G|---5---5-5------10---10-10---8--
C|-0---0--------0----0------------
                                 4x
  (0:25)
d|------------------------------------------------------------- [ play this line 2x clean and ]
A|------------------------------------------------------------- [ then 1 more time distorted  ]
F|-------------------------------------------------------------
C|---3-----------2-2----------------3-----------2-2------------
G|-----5---3h5-------3-------3h5------5---3-5-------3---3h5----
C|-0-----0-----0-------0-3h5------0-----0-----0-------0-----3--


d|-------------------------------------------------------------
A|-------------------------------------------------------------
F|------------------------------------------------------5------
C|---3-----------2-2----------------3-----------2-2-----5-3-0--
G|-----5---3h5-------3-------3h5------5---3h5-------3---3-3-0--
C|-0-----0-----0-------0-3h5------0-----0-----0-------0---3-0--



  Verse 1 (0:52)
d|-----|----------------------
A|-----|----------------------
F|-----|----------------------
C|-----|----------------------
G|-----|----------------------
C|-3-0-|------3-0--------3-0--
                             2x


  Chorus (1:28)
d|------------------------------------------|--------------------------------------
A|---11--11---------------------------------|---11--11-----------------------------
F|---10--10-----^----^----^----^------------|---10--10-----^----^----^----^--------
C|-8-8---8----0-0--0-0--0-0--0-0--10-10-10--|-8-8---8----0-0--0-0--0-0--0-0--10-7--
G|-8-----8----0-0--0-0--0-0--0-0--10-10-10--|-8-----8----0-0--0-0--0-0--0-0--10-7--
C|-8-----8----0-0--0-0--0-0--0-0--10-10-10--|-8-----8----0-0--0-0--0-0--0-0--10-7--


d|-----------------------------------------|-------------------------
A|---11--11--------------------------------|---11--11------13--13----
F|---10--10---7777-9999-10101010-12121212--|---10--10------12--12----
C|-8-8---8---------------------------------|-8-8---8----10-10--10----
G|-8-----8----5555-7777-8-8-8-8--10101010--|-8-----8----10-----10----
C|-8-----8---------------------------------|-8-----8----10-----10----



  Tag (1:53)
d|------------------------------
A|------------------------------
F|-----------------------5------
C|---3-----------2-2-----5-3-0--
G|-----5---3-5-------3---3-3-0--
C|-0-----0-----0-------0---3-0--



  Verse 2 (2:00)
d|-----------------
A|-----------------
F|-----------------
C|-----------------
G|-----------------
C|-3-0--------3-0--
                  2x


  Chorus 2 (2:31)
d|------------------------------------------|--------------------------------------
A|---11--11---------------------------------|---11--11-----------------------------
F|---10--10-----^----^----^----^------------|---10--10-----^----^----^----^--------
C|-8-8---8----0-0--0-0--0-0--0-0--10-10-10--|-8-8---8----0-0--0-0--0-0--0-0--10-7--
G|-8-----8----0-0--0-0--0-0--0-0--10-10-10--|-8-----8----0-0--0-0--0-0--0-0--10-7--
C|-8-----8----0-0--0-0--0-0--0-0--10-10-10--|-8-----8----0-0--0-0--0-0--0-0--10-7--


d|-----------------------------------------|--------------------------
A|---11--11--------------------------------|---11--11------13---------
F|---10--10---7777-9999-10101010-12121212--|---10--10------12---------
C|-8-8---8---------------------------------|-8-8---8----10-10----7-7--
G|-8-----8----5555-7777-8-8-8-8--10101010--|-8-----8----10-------7-7--
C|-8-----8---------------------------------|-8-----8----10-------7-7--



  Bridge (2:56)
d|--------------------------------------------      [ dont play the 1st open D on ]
A|--------------------------------------------      [ the 4th time playing        ]
F|--------------------------------------------
C|--------------------------------------------
G|---------5-------3-5-------5-------3--------
C|-(0)-3h5---0-3-5-----0-3h5---6-5-0---0-3-5--
                                             4x


  Chorus 3 (3:21)
d|------------------------------------------|--------------------------------------
A|---11--11---------------------------------|---11--11-----------------------------
F|---10--10-----^----^----^----^------------|---10--10-----^----^----^----^--------
C|-8-8---8----0-0--0-0--0-0--0-0--10-10-10--|-8-8---8----0-0--0-0--0-0--0-0--10-7--
G|-8-----8----0-0--0-0--0-0--0-0--10-10-10--|-8-----8----0-0--0-0--0-0--0-0--10-7--
C|-8-----8----0-0--0-0--0-0--0-0--10-10-10--|-8-----8----0-0--0-0--0-0--0-0--10-7--


d|-----------------------------------------|------------------------------
A|---11--11--------------------------------|---11--11------13--13---------
F|---10--10---7777-9999-10101010-12121212--|---10--10------12--12--13-13--
C|-8-8---8---------------------------------|-8-8---8----10-10--10--11-11--
G|-8-----8----5555-7777-8-8-8-8--10101010--|-8-----8----10-----10--11-11--
C|-8-----8---------------------------------|-8-----8----10-----10--11-11--



  Tag (3:46)
d|--------------------------------------
A|--------------------------------------
F|-10-----10-----10-----10-----9-9-9-9--
C|-0--0-0-0--0-0-0--0-0-0--0-0-0--------
G|----pm.----...----...----...---.....--
C|--------------------------------------
                                       2x

d|-----------------------------------------------------------------------
A|-10-----10-----10-----10-----8---------10-----10-----10-----10-----10--
F|-10-----10-----10-----10-----9-9-9-9---10-----10-----10-----10-----10--
C|-0--0-0-0--0-0-0--0-0-0--0-0-0---------0--0-0-0--0-0-0--0-0-0--0-0-0---
G|-----pm.----...----...----...---.....------pm.----...----...----...----
C|-----------------------------------------------------------------------



  End (3:58)
d|----------------------||---------------------
A|------------------10--||-----------------10--
F|-------^-------^--10--||------^-------^--10--
C|-0-0-0-0--0--0-0--0---||-0--0-0--0--0-0--0---
G|-0-0-0-0--0--0-0------||-0--0-0--0--0-0------
C|-0-0-0-0--0--0-0------||-0--0-0--0--0-0------
                                              3x
  (4:10)
d|-----------------------------|-----------
A|-------------------------10--|-----------
F|-777--101010-999-101010--10--|-7---------
C|-------------------------0---|-----------
G|-555--8-8-8--777-8-8-8-------|-5--8---7--
C|-0---------------------------|-0------0--
                              3x

Добавлено: 31.01.2014
Другие материалы по этой песне:
  • Аккорды и текст

Страница создана 31.01.2014
http://primanota.ru/breaking-benjamin/so-cold-part-one-chords.htm
Привет, Гость.
Предлагаем пройти революционный курс по гитаре.
Подарок от PrimaNota.Ru, забирай!