PrimaNota.ru - самый крупный в мире бесплатный архив песенных текстов, аккордов, табулатур и нот


Breaking Benjamin - Halo theme song - таба, видео

Регистрация Запомнить меня
Войти через:  Facebook Google Twitter Vk Yandex Mail.ru

Breaking Benjamin - Halo theme song - таба, видео

Печатать
Просмотров: 230


alright guys ive been playing this for ages now, tune up
to standard and itll sound right.

intro:

---------------------------------------------
---------------------------------------------
---------------------------------------------
-9/11-12---11/7--11/9-7-7-7/9-11/12-15--12/11
---------------------------------------------
---------------------------------------------


------------------------------------------------|
------------------------------------------------|
------------------------------------------------|
-9/7-7-7/9--------------------------------------|
------------------------------------------------|
------------------------------------------------|



chorus I:

-------------------------------------------------
-------------------------------------------------
-------------------------------------------------
-------------------------------------------------
-------7---------9---------10----------12--------
-0-0-0-----0-0-0-----0-0-0------0-0-0------0-0---

------------------------------------------------|
------------------------------------------------|
------------------------------------------------|
12-10-9-----------------------------------------|
------------------------------------------------|
------------------------------------------------|

chorus II:

------------------------------------------------|
------------------------------------------------|
------------------------------------------------|
------------------------------------------------|
------7--------9--------10-------12------12-10-9|
0-0-0---0-0-0-----0-0-0------0-0-0---0-0--------|

chorus III:

-------------------------------------------------
-------------------------------------------------
------9--------11-------12-------14------14-12-11
------9--------11-------12-------14------14-12-11
------7--------9--------10-------12------12-10-9
0-0-0---0-0-0----0-0-0-----0-0-0-----0-0---------

chorus IV:

--------------------------------------------
--------------------------------------------
------9-9------------------11-11------------
------9-9------------------11-11------------
------7-7-------7-5-4-------9-9-------9-7-6-
0-0-0-----0-0-0-------0-0-0-----0-0-0-------

-------------------------------------------------
-------------------------------------------------
------12-12--------------------14-14-------------
------12-12--------------------14-14-------------
------10-10-------10-8-7-------12-12------12-10-9
0-0-0-------0-0-0--------0-0-0------0-0-0--------

thats pretty much it but i did make what sounds haloish on my own
for a solo tell me what you think Draconim@gmail.com.

(  ) = very fast

Solo:
-------------------------------------------------
-------------------------------------------------
-------------------------------------------------
-------------------------------------------------
-7-9-10-(9-10-9-10)-9-10-12-(10-12-10-12)-12-10-9
-------------------------------------------------

-----------|
-----------|
-----------|
-----------|
-7-9-7-5/7-|
-----------|



thats it, send me some feedback or sugjestions.


Добавлено: 04.01.2014
Другие материалы по этой песне:
  • Аккорды и текст

Страница создана 04.01.2014
http://primanota.ru/breaking-benjamin/halo-theme-song-chords.htm
Привет, Гость.
Предлагаем пройти революционный курс по гитаре.
Подарок от PrimaNota.Ru, забирай!