PrimaNota.ru - самый крупный в мире бесплатный архив песенных текстов, аккордов, табулатур и нот


Breaking Benjamin - Anthem Of The Angles - таба, видео

Регистрация Запомнить меня
Войти через:  Facebook Google Twitter Vk Yandex Mail.ru

Breaking Benjamin - Anthem Of The Angles - таба, видео

Печатать
Просмотров: 290
Anthem of the Angels
Breaking Benjamin
Dear Agony
Tuning: C G C F A D

Ok, this is my first tab that's not a Sick Puppies tab. Sorry, I didn't include 
Aaron's guitar parts besides the pre-verses.  The tab isn't exactly timed, but 
just listen to the song and you will figure it out.  Please rate and comment.

Key:     /  slide up     ~  hold note     x  scratch note

Intro
Guitar 1 (Ben)                                         x2
|--------------------------------------------------------|----|
|--------------------------------------------------------|----|
|--------------------------------------------------------|----|End with this.
|-0-0-0--2--2-2/4-4-----------0-0-0--2--2-2/4-4----------|-0~-|
|-0-0-0--2--2-2/4-4-----------0-0-0--2--2-2/4-4----------|-0~-|
|-0-0-0--2--2-2/4-4--7-6-2-4--0-0-0--2--2-2/4-4--7-6-7-9-|-0~-|

Guitar 2 (Aaron)
|----------------------------------------------------------------------|
|------------------------------------------------------------------12--|
|-/14--13-------/14~-13------------11-/14--13-------/11---14-13-14-----|
|---------14-11---------14---11-14------------14-11--------------------|
|----------------------------------------------------------------------|
|----------------------------------------------------------------------|

|----------------------------------------------------------------------|
|----------------------------------------------------------------------|
|-/14--13-------/14~-13------------11-/14--13----/13-11---14-13--------|
|---------14-11---------14---11-14------------14----------------14--12-|
|----------------------------------------------------------------------|
|----------------------------------------------------------------------|

Verse is Singing, Bass, String Orchestra, but no guitar.

Chorus 
(Ben)
|---------------------------------------------------------------------------|
|---------------------------------------------------------------------------|
|---------------------------------------------------------------------------|
|-x-6--7---7---7--7-7--x7--6---6---6--6-6--x6--4---4--x2-22-x-2--0---0---0--|
|-x-6--7---7---7--7-7--x7--7---7---7--7-7--x7--4---4--x2-22-x-2--0---0---0--|
|-x-6--7---7---7--7-7--x7--6---6---6--6-6--x6--4---4--x2-22-x-2--0---0---0--|

|---------|
|---------|
|---------|Sorry that this small part is here. UG really needs to allow more 
|-0-0--x0-|space when you write the tabs.
|-0-0--x0-|
|-0-0--x0-|

Pre-Verse
Guitar 1 (Ben)
|-------------------------------------------------------|
|-------------------------------------------------------|
|-------------------------------------------------------|
|-0----2----4~~~----------------------0----2----4~~~----|
|-0----2----4~~~----------------------0----2----4~~~----|
|-0----2----4~~~----------------------0----2----4~~~----|

Guitar 2 (Aaron)
|-------------------------------------------------------|
|-------------------------------------------------------|
|-/14--13-----------------------------/14--13-------/11-|
|---------14-11--------------11--9/11--------14--11-----|
|----------------11-11/12-12----------------------------|
|-------------------------------------------------------|

Chorus 2 is played x2
(Ben)
|-----|---------------------------------------------------------------------|
|-----|---------------------------------------------------------------------|
|-----|---------------------------------------------------------------------|
|-x-6-|-7---7---7--7-7--x7--6---6---6--6-6--x6--4---4--x2-22-x-2--0---0---0-|
|-x-6-|-7---7---7--7-7--x7--7---7---7--7-7--x7--4---4--x2-22-x-2--0---0---0-|
|-x-6-|-7---7---7--7-7--x7--6---6---6--6-6--x6--4---4--x2-22-x-2--0---0---0-|
 ^----------Play this only the first time.
|---------|
|---------|
|---------|Again, sorry!
|-0-0--x0-|
|-0-0--x0-|
|-0-0--x0-|

Bridge                                x4
|--------------------------------------|
|--------------------------------------|
|--------------------------------------|
|-4----6----7----2----0----0-x2-0----0-|
|-4----6----7----2----0----0-x2-0----0-|
|-4----6----7----2----0----0-x2-0----0-|

Chorus 3                                                                   x2
|---------------------------------------|-----------------------------------|
|---------------------------------------|-----------------------------------|
|---------------------------------------|-----------------------------------|
|-7---7---7--7-7--x7--6---6---6--6-6--x6|-4---4--x2-22-x-2--0---0---0-0-0-x0|
|-7---7---7--7-7--x7--7---7---7--7-7--x7|-4---4--x2-22-x-2--0---0---0-0-0-x0|
|-7---7---7--7-7--x7--6---6---6--6-6--x6|-4---4--x2-22-x-2--0---0---0-0-0-x0|
This part is played acoustically the 1st 
                time.

Outro                                 x2
|--------------------------------------|
|--------------------------------------|
|--------------------------------------|
|-4---4--x2-22-x-2--0---0---0--0-0--x0-|
|-4---4--x2-22-x-2--0---0---0--0-0--x0-|
|-4---4--x2-22-x-2--0---0---0--0-0--x0-|

|--------------------------------------|
|--------------------------------------|
|--------------------------------------|
|-4~~-----2----x-2--0~~~---------------|
|-4~~-----2----x-2--0~~~---------------|
|-4~~-----2----x-2--0~~~---------------|

That's it. Sorry about there mainly being only one guitar part. Enjoy anyways.
Добавлено: 24.08.2013
Другие материалы по этой песне:
  • Аккорды и текст

Страница создана 24.08.2013
http://primanota.ru/breaking-benjamin/anthem-of-the-angles-chords.htm
Привет, Гость.
Предлагаем пройти революционный курс по гитаре.
Подарок от PrimaNota.Ru, забирай!