PrimaNota.ru - самый крупный в мире бесплатный архив песенных текстов, аккордов, табулатур и нот


Breakdown Of Sanity - Prologue - таба, видео

Регистрация Запомнить меня
Войти через:  Facebook Google Twitter Vk Yandex Mail.ru

Breakdown Of Sanity - Prologue - таба, видео

Печатать
Просмотров: 439
-------------------------------------------------------------------------------
                             Prologue - Breakdown of Sanity
-------------------------------------------------------------------------------
Tabbed by: Adam Guion
Email:AdamGuion@gmail.com

Tuning: Drop A

Nice little techno and rain beginning.... this is such a great band, please make 
sure to support them.

 Both guitars
B|---------------------------------------------------------------------------|
G|---------------------------------------------------------------------------|
D|---------------------------------------------------------------------------|
A|------------------------------------------------------0~~------------------|
E|-000~000~0~00~00~0~0~000~000~0~0~0~0~0~0~000~~000~0~0~0~~00~0~0-0----------|
A|-000~000~0~00~00~0~0~000~000~0~0~0~0~0~0~000~~000~0~0~0~~00~0~0-0----------|
   *** *** * ** ** * * *** *** * * * * * * ***  *** * * *  ** * * *
Guitar 1
B|---------------------------------------------------------------------------|
G|---------------------------------------------------------------------------|
D|---------------------------------------------------------------------------|
A|-------------------------------------------------------0-----0-0-0---------| -
E|-000-----0-00-00-0-0-000-000-0-0-0-0-0-0-000--0-000-00-0--00-0-0-0---------|   \
A|-000-----0-00-00-0-0-000-000-0-0-0-0-0-0-000--0-000-00-0--00-0-0-0---------|    \
   ***     * ** ** * * *** *** * * * * * * ***  * *** ** *  ** * * * 

Guitar 2                                                                          Played at the same
B|---------------------------------------------------------------------------|     /time, notice the
G|---------------------------------------------------------------------------|    / first set of
D|---------------------------------------------------------------------------|   /  triplets are at 
A|------------------------------------------------------0--------------------| -  different times.
E|-----000-0-00-00-0-0-000-000-0-0-0-0-0-0-000--000-0-0-0--00-0-0-0----------|
A|-----000-0-00-00-0-0-000-000-0-0-0-0-0-0-000--000-0-0-0--00-0-0-0----------|
       *** * ** ** * * *** *** * * * * * * ***  *** * * *  ** * * *

Guitar 1
B|---------------------------------------------------------------------------|
G|---------------------------------------------------------------------------|
D|---------------------------------------------------------------------------|
A|---------------------------------------------------------------------------|
E|-000-000----------------0-0-0-0-0-000-000--0-0~~~~~~~----------------------|
A|-000-000----0-0~~~~~~~--0-0-0-0-0-000-000--0-0~~~~~~~-0~0~0~0~0~~~~~~~~ whammy if you have one---|
   *** ***                * * * * * *** ***  * *
Guitar 2
B|------8-----|
G|----5-------|
D|------------|
A|--5---------|Can't decide whether you play it 8 or 10 times.
E|------------|
A|------------|




************************************
| *   palm mute
| /   slide up
| \   slide down
| h   hammer-on
| p   pull-off
| ~   vibrato
| +   harmonic
| x   Mute note
| b   Bend
| pb  Pre-bend
| br  Bend release
| pbr Pre-bend release
| brb Bend release bend

************************************
Добавлено: 26.05.2012
Другие материалы по этой песне:

Страница создана 26.05.2012
http://primanota.ru/breakdown-of-sanity/prologue-chords.htm
Привет, Гость.
Предлагаем пройти революционный курс по гитаре.
Подарок от PrimaNota.Ru, забирай!