PrimaNota.ru - самый крупный в мире бесплатный архив песенных текстов, аккордов, табулатур и нот


Break Even - October 27th - таба, видео

Регистрация Запомнить меня
Войти через:  Facebook Google Twitter Vk Yandex Mail.ru

Break Even - October 27th - таба, видео

Печатать
Просмотров: 174
Band: BREAK EVEN
Album: THE BRIGHT SIDE
SONG: OCTOBER 27th

I think everyone who hears this song falls in love with it...

Drop Db/C# tuning (low to high) = Db, Ab, Db, Gb, Bb Eb

Sunrise/Verse:

With the rise of the sun a new day is born
------3--------------3------3------3------------|
------3--------------3------3------3-------x-x--|
-------------------------------------------x-x--|
-------------------------------------------x-x--|
-------------------------------------------x-x--|
--0h2------------0h2----0h2----0h2--------------|


And as I stare out to see I look for hope to find me
------3--------------3------3------3------------|
------3--------------3------3------3-------xxx--|
-------------------------------------------xxx--|
-------------------------------------------xxx--|
-------------------------------------------xxx--|
--0h2------------0h2----0h2----0h2--------------|


Let this day be a day to remember
------3--------------3------3------3------------|
------3--------------3------3------3-------x-x--|
-------------------------------------------x-x--|
-------------------------------------------x-x--|
-------------------------------------------x-x--|
--0h2------------0h2----0h2----0h2--------------|


Let this sun be one to remember
------3--------------3------3------3------------|
------3--------------3------3------3------------|
------------------------------------------------|
------------------------------------------------|
------------------------------------------------|
--0h2------------0h2----0h2----0h2--------------|


Chorus: (play each chord 8 times)
This isn't exact, but it's something like it:

Shine bright baby shine bright
----------------------------------------------|
-9-----9----9-----11-----------------11-- <---|
-10----8----10----10-----------------12-------|Last
----------------------------------------------|chord
----------------------------------------------|might
----------------------------------------------|be

If you don't think that sounds right, play this:
(again, play each powerchord 8 times & palm mute)
-----------------------|
-----------------------|
--9-----7-----5-----5--|
--7-----5-----3-----3--|
-----------------------|
-----------------------|
  .     .     .     .

Play verse again.
Play Chorus Again.

Extended Chorus: (not sure about the palm muting pattern)

-------------------------------------|R
-------------------------------------|E
--99999999777777775555555555555555---|P
--77777777555555553333333333333333---|E
-------------------------------------|A
-------------------------------------|T
           ..  . . ..  . .  .. . .


Then the last bit:
-----------10-------------10-10/12-10-------|
--------12-------------12-------------12----|
--10h12----------10h12----------------------|
--------------------------------------------|
--------------------------------------------|
--------------------------------------------|


Well, that's most of it.
Enjoy.
Please Rate/comment.

http://www.myspace.com/breakevenhc
http://www.myspace.com/breakevenhc
Добавлено: 30.04.2012
Другие материалы по этой песне:
  • Аккорды и текст

Страница создана 30.04.2012
http://primanota.ru/break-even/october-27th-chords.htm
Привет, Гость.
Предлагаем пройти революционный курс по гитаре.
Подарок от PrimaNota.Ru, забирай!