PrimaNota.ru - самый крупный в мире бесплатный архив песенных текстов, аккордов, табулатур и нот


Break Even - Hells Gates - таба, видео

Регистрация Запомнить меня
Войти через:  Facebook Google Twitter Vk Yandex Mail.ru

Break Even - Hells Gates - таба, видео

Печатать
Просмотров: 147
Уроки эстрадного вокала в Санкт-Петербурге
-----------------------------------------------------------------------------
                             HELLS GATES - Break Even
-----------------------------------------------------------------------------
Tabbed by: RIPsteggy

Tuning: Half Step Down


BASS:
|----------------------------------------------------------|
|----------------------------------------------------------|
|----------------------------------------------------------|
|----------------------------------------------------------|
|----------------------------------------------------------|
|-0-0-0-3-3-3-3s8-(x24)------------------------------------|

(haven't tried playing it on bass, but thats what i've deciphered on my guitar, so yeah)

GUITAR (main riff):
|----------------------------------------------------------|
|----------------------------------------------------------|
|----------------------------------------------------------|
|-----0-2--0-5-0-4-0-5-0-4-0-5-0-4-0-----------------------|
|-0-2------------------------------------------------------|
|----------------------------------------------------------|

This bit is repeated in certain sections later on.



The rest of the song alternates between these chords (mainly the first two earlier on 
duing the song).

|-------------------------|
|-------------------------|
|--9----5----7------------|
|--9----5----7----7-------|
|--7----3----5----7-------|
|-----------------5-------|


There's more to it, but I haven't figured it out yet. This is the majority of it though, 
albeit fairly basic.


************************************

| h   hammer-on
| p   pull-off
| s   slide

************************************
Добавлено: 10.05.2012
Другие материалы по этой песне:
  • Аккорды и текст

Страница создана 10.05.2012
http://primanota.ru/break-even/hells-gates-chords.htm
Привет, Гость.
Предлагаем пройти революционный курс по гитаре.
Подарок от PrimaNota.Ru, забирай!