PrimaNota.ru - самый крупный в мире бесплатный архив песенных текстов, аккордов, табулатур и нот


BRDigung - Weg Zum Letzten Gericht - таба, видео

Регистрация Запомнить меня
Войти через:  Facebook Google Twitter Vk Yandex Mail.ru

BRDigung - Weg Zum Letzten Gericht - таба, видео

Печатать
Просмотров: 79
Capo 3. Bund

Em 022000
C  032010
B7 021202

/ = Slide


Intro
E ----------0---------------------------------------------------------------|     x4
B ------------0---------------1-----------------3-----------------3---------|
G -------0------0-----------0---0---0---------0---0---0---------0---0---0---|
D -----2----------0-------2-------2---------4-------4---------4-------4-----|
A ---2------------------3-----------------5-----------------5---------------|
E -0------------------------------------------------------------------------|

Em                  C     B7
Auf der Suche nach Glück bleiben wir einsam zurück
Em                   C                        B7
Kein Licht das uns lenkt keine Hand die uns fängt

Kein Mund der uns ein Lächeln schenkt
Em               C   B7
Und es wird uns klar am Ende ist nichts mehr wie es war
Em               C                            B7
Der Winter wird kalt doch der Frühling kommt bald und Deine Nähe gibt mir halt

E ----------0---------------------------------------------------------------|     x2
B ------------0---------------1-----------------3-----------------3---------|
G -------0------0-----------0---0---0---------0---0---0---------0---0---0---|
D -----2----------0-------2-------2---------4-------4---------4-------4-----|
A ---2------------------3-----------------5-----------------5---------------|
E -0------------------------------------------------------------------------|

Em    C            G                     D
Kälte in der Nacht doch ich spür Dein Licht
Em           C             G           D
Und all die Sorgen in mir ich seh sie nicht
Em     C            G               D
Stille in der Nacht ich war da für Dich
Em
Doch den letzten Weg gehen wir allein
B7
Den Weg zum letzten Gericht

E -7------7-----7----7------7-----7-----3-----3-----3-----2--|          x2
B ---8------8-----8----8------8-----8-----5-----5-----5------|
G -----9------9----------7------7-----------5-----5----------|
D -----------------------------------------------------------|
A -----------------------------------------------------------|
E -----------------------------------------------------------|

Em               C
Den Weg Hand in Hand
B7
Wir hielten dem Wind und Regen stand
Em                      C                             B7
Die letzte Blühte sie welkt bevor sie abstirbt und fällt

Fast so wie Du aus meiner Welt
Em               C   B7
Und ein Teil von Dir er bleibt auf ewig in mir
Em                        C
Auch wenn der Himmel uns trennt
                               B7
Ein Mensch der gerne an Dich denkt

Den Satz auf Deinem Grabstein kennt
E ----------0---------------------------------------------------------------|     x2
B ------------0---------------1-----------------3-----------------3---------|
G -------0------0-----------0---0---0---------0---0---0---------0---0---0---|
D -----2----------0-------2-------2---------4-------4---------4-------4-----|
A ---2------------------3-----------------5-----------------5---------------|
E -0------------------------------------------------------------------------|

Den Satz auf Deinem Grabstein kennt
Ich lass Dich nie mehr allein

Em    C            G                     D
Kälte in der Nacht doch ich spür Dein Licht
Em           C             G           D
Und all die Sorgen in mir ich seh sie nicht
Em     C            G               D
Stille in der Nacht ich war da für Dich
Em
Doch den letzten Weg gehen wir allein
B7
Den Weg zum letzten Gericht


E -----------------------------------------------------------------------------|         x2
B –/8—7—5----/8--7--5----/8--7--3------/12--10--8----/12--10--8-----/12--8--7--|
G -----------------------------------------------------------------------------|
D -----------------------------------------------------------------------------|
A -----------------------------------------------------------------------------|
E -----------------------------------------------------------------------------|

Em C G D  x4

Em    C            G                     D
Kälte in der Nacht doch ich spür Dein Licht
Em           C             G           D
Und all die Sorgen in mir ich seh sie nicht
Em     C            G               D
Stille in der Nacht ich war da für Dich
Em                              D
Doch den letzten Weg gehen wir allein
Добавлено: 16.11.2013
Другие материалы по этой песне:
  • Аккорды и текст

Страница создана 02.06.2013
http://primanota.ru/brdigung/weg-zum-letzten-gericht-chords.htm
Привет, Гость.
Предлагаем пройти революционный курс по гитаре.
Подарок от PrimaNota.Ru, забирай!