PrimaNota.ru - самый крупный в мире бесплатный архив песенных текстов, аккордов, табулатур и нот


Brave Saint Saturn - The Sun Also Rises - текст песни, таба, видео

Регистрация Запомнить меня
Войти через:  Facebook Google Twitter Vk Yandex Mail.ru

Brave Saint Saturn - The Sun Also Rises - текст песни, таба, видео

Печатать
Просмотров: 143
-------------------------------------------------------------------------------
                    THE SUN ALSO RISES - Brave Saint Saturn
-------------------------------------------------------------------------------
Tabbed by:donthavealife??
Email:b777vale@yahoo.com

Tuning:Standard

Real easy song, about time someone posted some sort of tab. I would love to get 
the synthesizer part figured out, if you know it please post it.

Intro:
  “Yeah!”
e|-----------------------------------------------|
B|-----------------------------------------------|
G|-----------------------------------------------|
D|--7-7-7-7-7-7-7-7-111111119-9-9-9--------------|
A|--7-7-7-7-7-7-7-7-111111119-9-9-9--------------|
E|--5-5-5-5-5-5-5-5-9-9-9-9-7-7-7-7--------------|x2

e|----------------------------------------|
B|----------------------------------------|
G|----9-9-9-9-9-9-9-9---------------------|
D|----9-9-9-9-9-9-9-9---------------------|
A|----7-7-7-7-7-7-7-7---------------------|
E|----------------------------------------|

Bass line during verse:

G|---------------------------------------------------------------------------|
D|---------------------------------------------------------------------------|
A|---------------------------------------------------------------------------|
E|--0-0----7-7----5-5----7-7----0-0----5-5----7-7----9-9-7-------------------|


Guitar comes in:
e|-----------------------------------------------------------------------|
B|-----------------------------------------------------------------------|
G|--9-9-x-x-------------------------9-9-x-x------------------------------|
D|--9-9-x-x-9-9-x-x-7-7-x-x-9-9-x-x-9-9-x-x-9-9-x-x-7-7-x-x-11119-9------|
A|--7-7-x-x-9-9-x-x-7-7-x-x-9-9-x-x-7-7-x-x-9-9-x-x-7-7-x-x-11119-9------|
E|----------7-7-x-x-5-5-x-x-7-7-x-x---------7-7-x-x-5-5-x-x-9-9-7-7------|

e|-----------------------------------------------------------------------|
B|-----------------------------------------------------------------------|
G|--9-9-xxxx------------------------9-9-xxxx-----------------------------|
D|--9-9-xxxx9-9-xxxx7-7-xxxx9-9-xxxx9-9-xxxx9-9-xxxx7-7-xxxx11119-9------|
A|--7-7-xxxx9-9-xxxx7-7-xxxx9-9-xxxx7-7-xxxx9-9-xxxx7-7-xxxx11119-9------|
E|----------7-7-xxxx5-5-xxxx7-7-xxxx--------7-7-xxxx5-5-xxxx9-9-7-7------|

e|---------------------------------------------------------------------------|
B|---------------------------------------------------------------------------|
G|--9-9-9-9-------------------------9-9-9-9----------------------------------|
D|--9-9-9-9-9-9-9-9-7-7-7-7-9-9-9-9-9-9-9-9-9-9-9-9-7-7-7-7-11119-9-9-9-9-9--|
A|--7-7-7-7-9-9-9-9-7-7-7-7-9-9-9-9-7-7-7-7-9-9-9-9-7-7-7-7-11119-9-9-9-9-9--|
E|----------7-7-7-7-5-5-5-5-7-7-7-7---------7-7-7-7-5-5-5-5-9-9-7-7-7-7-7-7--|
                         “...I can't wait, can't wait for tomorrow”


The Chorus is just the intro chords:
 
e|-----------------------------------------------|
B|-----------------------------------------------|
G|-----------------------------------------------|
D|--7-7-7-7-7-7-7-7-111111119-9-9-9--------------|
A|--7-7-7-7-7-7-7-7-111111119-9-9-9--------------|
E|--5-5-5-5-5-5-5-5-9-9-9-9-7-7-7-7--------------|
    “I believe, the sun also rises”

etc, etc.

At the end of the chorus play this, just like the intro:

e|----------------------------------------|
B|----------------------------------------|
G|----9-9-9-9-9-9-9-9---------------------|
D|----9-9-9-9-9-9-9-9---------------------|
A|----7-7-7-7-7-7-7-7---------------------|
E|----------------------------------------|

Bass line during bridge (slightly, slightly different):

G|---------------------------------------------------------------------------|
D|---------------------------------------------------------------------------|
A|---------------------------------------------------------------------------|
E|--0-0---0-7-7---7-5-5---5-7-7---7-0-0---0-7-7---7-5-5--5-9-9-7-7-----------|

That's the end. Super easy.


| /  slide up
| \  slide down
| h  hammer-on
| p  pull-off
| ~  vibrato
| +  harmonic
| x  Mute note
===============================================================================
Добавлено: 11.06.2012
Другие материалы по этой песне:
  • Аккорды и текст

Страница создана 19.03.2012
http://primanota.ru/brave-saint-saturn/the-sun-also-rises-chords.htm
Привет, Гость.
Предлагаем пройти революционный курс по гитаре.
Подарок от PrimaNota.Ru, забирай!