PrimaNota.ru - самый крупный в мире бесплатный архив песенных текстов, аккордов, табулатур и нот


Brave Bird - Scared Enough - таба, видео

Регистрация Запомнить меня
Войти через:  Facebook Google Twitter Vk Yandex Mail.ru

Brave Bird - Scared Enough - таба, видео

Печатать
Просмотров: 45
If anyone knows the rest of this song, please get in contact with me and I'll add it
Capo Fret 5

Part 1:

E|-----5--------------5--------------5--------------5-----------|
B|--------2-----2--------2-----2--------2-----2--------2-----2--|
A|-----------4--------------4--------------4--------------4-----|
E|--------------------------------------------------------------|
A|--------------------------------------------------------------|
D|--0--------------0--------------0--------------0--------------|

Part 2:

E|--------------------------------------------------------------|
B|-----0--------0--------0-----0--------0-----0--------0-----0--|
A|--------4-----------4--------------4--------------4-----------|
E|--------------------------------------------------------------|
A|--------------------------------------------------------------|
D|--0--------0-----0--------0-----0--------0-----0--------0-----|

Part 3:

E|--------------|
B|--------------|
A|--------------|
E|--0--2--4--7--|  x2
A|--0--2--4--7--|
D|--0--2--4--7--|

Part4:

E|-----------------------------------------|
B|-----------------------------------------|
A|-----------------------------------------|
E|--0-00-000--2-22-222--4-44-444-7-77-777--| x2
A|--0-00-000--2-22-222--4-44-444-7-77-777--|
D|--0-00-000--2-22-222--4-44-444-7-77-777--|
Добавлено: 11.06.2016
Другие материалы по этой песне:
  • Аккорды и текст

Страница создана 11.06.2016
http://primanota.ru/brave-bird/scared-enough-chords.htm
Привет, Гость.
Предлагаем пройти революционный курс по гитаре.
Подарок от PrimaNota.Ru, забирай!