PrimaNota.ru - самый крупный в мире бесплатный архив песенных текстов, аккордов, табулатур и нот


Brandos - How The Dice Fall - бас-таба, видео

Регистрация Запомнить меня
Войти через:  Facebook Google Twitter Vk Yandex Mail.ru

Brandos - How The Dice Fall - бас-таба, видео

Печатать
Просмотров: 26
-------------------------------------------------------------------------------
How the dice fall - The brandos
-------------------------------------------------------------------------------
Tabbed by: wesselrockt
E-mail: wessellangedijk@hotmail.com

Tuning: standard

Intro
G|-----------------------------------------------------------------------|
D|---5~~------------------------------3~~--------------------------------|
A|-----------------------------------------------------------------------|
E|-----------------------------------------------------------------------|

G|-----------------------------------------------------------|
D|---5--5--3H5-5--3H5-5--0H3--0H3--------------3-0-3-0-5--5--|
A|---------------------------------5--5--3H5-5---------------|
E|-----------------------------------------------------------|

G|------------------------------|
D|---5--5--3H5-5--3H5-5--3H5-5--|
A|------------------------------|
E|------------------------------|

Verse
G|------------------------------------------------------------|
D|---5--5--3H5-5--3H5-5--0H3--0H3---------------3-0-3-0-5--5--| 2x
A|---------------------------------5--5--3H5-5----------------|
E|------------------------------------------------------------|

G|-------------------------------------------------------------------|
D|---5-5-5-5-5-5-5-5-3-3-3-3-3-3-3-3---------------------------------|
A|-----------------------------------5-5-5-5-5-5-5-5-3h5-5-5-3h5-5-5-|
E|-------------------------------------------------------------------|

Chorus
G|---------------------------------------------------------|
D|---5--5--3H5-5--3H5-5--3H5-5--5--5--3h5-5--3h5-5--3h5-5--|
A|---------------------------------------------------------|
E|---------------------------------------------------------|

G|-------------------------------------------------|
D|---0-0-0-0-0-0-0-0-3-3-3-3---------5--5-3h5-5-R--|
A|---------------------------3-3-3-3---------------|
E|-------------------------------------------------|


Pre-verse
G|------------------------------------------------------------|
D|---5--5--3H5-5--3H5-5--0H3--0H3---------------3-0-3-0-5--5--|
A|---------------------------------5--5--3H5-5----------------|
E|------------------------------------------------------------|

Repeat verse 
Repeat chorus

Bridge
G|-------------------3h5~~------------------------------------------|
D|---5~~\-----------------------------3~~-----------0~~-------------| 2x
A|------------------------------------------------------------------|
E|------------------------------------------------------------------|

G|-------------------3h5-3h5~----------------------------------------|
D|---5~~\-----------------------------3~~-----------0----------------| 2x
A|-------------------------------------------------------------------|
E|-------------------------------------------------------------------|

Guitar solo
G|------------------------------------------------------------|
D|---5--5--3H5-5--3H5-5--0H3--0H3---------------3-0-3-0-5--5--| 2x
A|---------------------------------5--5--3H5-5----------------|
E|------------------------------------------------------------|

G|-------------------------------------------------------------------|
D|---5-5-5-5-5-5-5-5-3-3-3-3-3-3-3-3---------------------------------|
A|-----------------------------------5-5-5-5-5-5-5-5-3h5-5-5-3h5-5-5-|
E|-------------------------------------------------------------------|

G|---------------------------------------------------------|
D|---5--5--3H5-5--3H5-5--3H5-5--5--5--3h5-5--3h5-5--3h5-5--|
A|---------------------------------------------------------|
E|---------------------------------------------------------|

G|-------------------------------------------------|
D|---0-0-0-0-0-0-0-0-3-3-3-3---------5--5-3h5-5-R--|
A|---------------------------3-3-3-3---------------|
E|-------------------------------------------------|

Repeat verse
Repeat chorus 2x

Outro 
G|----------------------------------------------------------|
D|---5--5--3H5-5--3H5-5--0H3--0H3------------3-0-3-0-5------| 
A|---------------------------------5--5--3H5-slow down here-|
E|----------------------------------------------------------|


| /  slide up
| \  slide down
| h  hammer-on
| p  pull-off
| ~  vibrato
| +  harmonic
| x  Mute note
| R  Rest
Добавлено: 12.06.2016
Другие материалы по этой песне:
  • Аккорды и текст

Страница создана 12.06.2016
http://primanota.ru/brandos/how-dice-fall-chords.htm
Привет, Гость.
Предлагаем пройти революционный курс по гитаре.
Подарок от PrimaNota.Ru, забирай!