PrimaNota.ru - самый крупный в мире бесплатный архив песенных текстов, аккордов, табулатур и нот


Brandon Boyd - Here Comes Everyone - аккорды и текст, видео

Регистрация Запомнить меня
Войти через:  Facebook Google Twitter Vk Yandex Mail.ru

Brandon Boyd - Here Comes Everyone - аккорды и текст, видео

Печатать
Просмотров: 134
Here Comes Everyone
Brandon Boyd
-------------------------------------------------------------------------------
                             Here comes Everyone - Brandon Boyd
-------------------------------------------------------------------------------
Tabbed by: Redgend
Email: Redgend@hotmail.co.uk

Tuning: EADGBe

   E5    Eb5   C#5   B5    Bb5   F#5   A5     C5
e|----- ----- ----- ----- ----- ----- ----- -----|
B|----- ----- ----- ----- ----- ----- ----- -----|
G|----- ----- ----- ----- ----- ----- ----- -----|
D|--9-- --8-- --6-- --9-- --8-- --4-- --7-- --5--|
A|--7-- --6-- --4-- --9-- --8-- --4-- --7-- --3--|
E|----- ----- ----- --7-- --6-- --2-- --5-- -----| 


Intro:
E5 Eb5 C#5 Eb5   x2
Ooooooo

Verse:
E5  Eb5        C#5      B5 Bb5
    Here comes everyone,
F#5                              A5                   B5
Lining up with bucks and ask for phantom consolation prize, oh
E5  Eb5        C#5      B5 Bb5
    Here comes everyone
F#5                                   A5                           B5
Blunted, bleached and massed produced It's amazing what we can get used to
E5  Eb5       C#5      B5 Bb5
    What will we say, 
     F#5                                     A5                            B5
when our children ask,"What have you done? You've gone and used up all the fun"

Chorus:
C#5             B5            F#5    B5
Oh, yeah, we're only treading water
C#5     B5               F#5    B5
Whether yours or whether ours
C#5         B5         F#5     F#5
Yeah, we're all in the gutter
     A5              B5
But some of us, yeah some of us are looking at the stars

Post chorus:
e|---------------------------|
B|---------------------------|
G|---------------------------|
D|---6-7-9-12-9-7-7-7b-7-6---|
A|---------------------------|
E|---------------------------|

Outro:
C5
Oh, here comes everyone
A5
Here comes,
C5
I come,
A5
here comes...
E5
everyone.


************************************

| /   slide up
| \   slide down
| h   hammer-on
| p   pull-off
| ~   vibrato
| +   harmonic
| x   Mute note
| b   Bend
| pb  Pre-bend
| br  Bend release
| pbr Pre-bend release
| brb Bend release bend

************************************
Добавлено: 08.03.2012
Другие материалы по этой песне:
  • Аккорды и текст

Страница создана 08.03.2012
http://primanota.ru/brandon-boyd/here-comes-everyone-chords.htm
Привет, Гость.
Предлагаем пройти революционный курс по гитаре.
Подарок от PrimaNota.Ru, забирай!