PrimaNota.ru - самый крупный в мире бесплатный архив песенных текстов, аккордов, табулатур и нот


Brandi Carlile - Save Part Of Yourself - аккорды и текст, видео

Регистрация Запомнить меня
Войти через:  Facebook Google Twitter Vk Yandex Mail.ru

Brandi Carlile - Save Part Of Yourself - аккорды и текст, видео

Печатать
Просмотров: 122
Авторы музыки: Tim Hanseroth, Brandi Carlile
Авторы текста: Tim Hanseroth, Brandi Carlile
Save Part Of Yourself
Brandi Carlile
***********************************************************************************************
                             Save Part of Yourself           by Brandi Carlile
***********************************************************************************************


(off the album Bear Creek)
tab author -- Margaret O'Keefe (margaretokeefe.tumblr.com)

Tuning: standard
Capo: 2 (All chords & tabs relative to capo)


LOW/BASS INTRO
(in case you want to play the beginning bass part it goes like this... and
continues much the same way throughout the song.....)

E |----------------|----------------|----------------|-------------------|
B |----------------|----------------|----------------|-------------------|
G |-------------- -|----------- ----|----------------|-------------------|
D |----2--2--2--2- |----2--2--2--2-|----2---2--2--2-|---4--4--2---2------|
A |--0--0--0---0-- |--0--0--0---0--|--0---0--0--0---|--0--0--0---0-------|
E |----------------|----------------|----------------|-------------------|

E |----------------|-------------------|
B |----------------|-------------------|
G |-------------- -|-----------  ------|
D |----2--2--2--2- |----2--2--2--2-----|
A |--------------- |--0--0--0---0------|
E |--2---2--4--4---|-------------------|



HIGHER/GUITAR INTRO
E |5-2-0-----0-2-5-|--------------0-|-0-2-5-7-9-12-14-|-12-9-7--5---------|
B |--------2-------|-2^3-3--2-3-2---|-----------------|-------------------|
G |----------------|----------------|-----------------|-------------------|
D |----------------|----------------|-----------------|-------------------|
A |----------------|----------------|-----------------|-------------------|
E |----------------|----------------|-----------------|-------------------|


*******verse 1*****************
A
Sun came up and five years gone
Asus4                         A
Life goes on yeah life goes on
E                                          A
I wonder how you're getting by
A
Sun goes down and I feel blue
Asus4                                   A
Now I toss, 'cause my mind's on you
E                                        A
And I kind of miss your broken smile

*******bridge********************
Asus4                                           A
Save part of yourself for me
        Dmin                                             A
Won't you save part of yourself for me

******chorus*******************
progression for the "oohs"
A, Asus4, A, E, A....


*******verse 2*****************
A
I remember you and me
Asus4                                   A
Lost and young and dumb and free
E                                        A
And unaware of years to come
A
Just a whisper in the dark
Asus4                           A
On the pavement in the park
E                                                   A
You taught me how to love someone

*****repeat bridge**********
*****repeat chorus 2x*********


*******verse 3*****************
A
When we walk into the sun
Asus4                                   A
Or burn below for what we've done
E                                   A
Will you still call out for me?
A
Turn to light or fade to black
Asus4                                    A
Don't look back no you don't look back
E                                           A
and what you might not want to see

*****repeat bridge**********
*****repeat chorus 2x*********

A
Sun goes down and five years gone
Asus4                                  A
Life goes on, yeah life goes on
        E                                                 A
I hope you caught up with your dreams


******repeat bridge**************

(finish on an A)
Добавлено: 22.06.2013
Другие материалы по этой песне:
  • Аккорды и текст

Страница создана 22.06.2013
http://primanota.ru/brandi-carlile/save-part-of-yourself-chords.htm
Привет, Гость.
Предлагаем пройти революционный курс по гитаре.
Подарок от PrimaNota.Ru, забирай!