PrimaNota.ru - самый крупный в мире бесплатный архив песенных текстов, аккордов, табулатур и нот


Brand New - Sowing Season Yeah - текст песни, таба, видео

Регистрация Запомнить меня
Войти через:  Facebook Google Twitter Vk Yandex Mail.ru

Brand New - Sowing Season Yeah - текст песни, таба, видео

Печатать
Просмотров: 173
Standard Tuning
Sowing Season (Yeah) by Brand New
Tabbed by Hana.

(Listen to song to get exact order).


- Great song. I'm not sure if this is the way it's played on the actual record coming out in November.
I used the "New Album Demo" leak. Enjoy.


Verse/Chorus (**Or you can play E5 (a-7 d-9 g-9-------------------| B5 A5 G5)
e|----------------------------------------------------------------|
b|----------------------------------------------------------------|
g|--------------0-------------------------------------------------|
d|--5-5-5-5-5-5--x-x-x-x-x-x--x-x-x-x-x-x--x-x-x-x-x-x------------|
a|--7-7-7-7-7-7--5-5-5-5-5-5--7-7-7-7-7-7--5-5-5-5-5-5------------|
E|--x-x-x-x-x-x--7-7-7-7-7-7--5-5-5-5-5-5--3-3-3-3-3-3------------|
(Occasionally, you hear an open G during the verse i.e. at 0:14).

At 0:38
e|----10--------------------|
b|-------12---10---12-------|
g|--9-------------------12--|
d|--------------------------|
a|--------------------------|
E|--------------------------|

Chorus riff
e|--------------------------------------------------------------|
b|------------------------------------------12-10---------------|
g|---7—h9-7-b11-9-7-9----------7-h9-7-b11-9-------br11br11------|
d|--------------------9h10p9------------------------------------|
a|--------------------------------------------------------------|
E|--------------------------------------------------------------|


After chorus
e|-----------------------------|---------------------------------|
b|--12~-----10~----10~---------|-12~-----10~----10~--------------|
g|----12~-9~---11~----11~---12~|---12~-9----11~----11~---9~------|
d|---------------12~-----12~---|--------------12~-----12~--------|
a|-----------------------------|---------------------------------|
E|-----------------------------|---------------------------------|
For the b (9 on g string) there you can play 14 on d string instead.

***Chorus and then: B5 x18 A5 B5 A5 G5***

At 2:30
e|----------------------|
b|----12-10-------------|
g|----------br11br11----|
d|----------------------|  x4
a|----------------------|
E|----------------------|

e|----------------------------------------|
b|------------10---------------7--8--7----|
g|--9--11--12-----12--11--7--9---------7--|
d|----------------------------------------|
a|----------------------------------------|
E|----------------------------------------|


e|-----------------------------|-----------------------------|
b|--12~-----10~----10~---------|-12~-----10~----10~----------|
g|----12~-9~---11~----11~---12~|---12~-9----11~----11~---9~--|
d|---------------12~-----12~---|--------------12~-----12~----|
a|-----------------------------|-----------------------------|
E|-----------------------------|-----------------------------|

At 3:07 (This is my preference, but you can pick them all if you like).
e|-----------------------------------------------------|
b|--13p12/10h12/8--10h12/8-----------------------------|
g|-------------------------9p7/5h7/4-0h2h4-(or –5h7h9-)|
d|-----------------------------------------------------|
a|-----------------------------------------------------|
E|-----------------------------------------------------|
The second time around is without 9p7/5h7/4-0h2h4.

Verse

At 3:30
e|-------------------------------------------------------------|
b|--------0-------------0-----------0------------0-------------|
g|-----0----0-------0-----0-----0-----0------0-----0-----------|
d|----5--5--------5---5-------5---5--------5---5---------------|
a|--7-----------5-----------3------------2---------------------|
E|-------------------------------------------------------------|
The second time around is A (0 on a string or 5 on E string) instead of the C (3 on a string)


My best guess of what he plays right before last chorus:
g|--21--|
d|---x--|
a|--19--|
Hit the distortion pedal & strum really quickly then slide down one fret & come back, or 
bend & release.

Chorus riff
e|------------------------------------------------------------|
b|------------------------------------------12-10-------------|
g|---7—h9-7-b11-9-7-9----------7-h9-7-b11-9-------br11br11----|
d|--------------------9h10p9----------------------------------|
a|------------------------------------------------------------|
E|------------------------------------------------------------|

***Chorus and then: B5 x18 A5 B5 A5 G5***

e|----------------------|
b|----12-10-------------|
g|----------br11br11----|
d|----------------------|  x4
a|----------------------|
E|----------------------|

e|----------------------------------------------|
b|------------10---------------7--8--7----------|
g|--9--11--12-----12--11--7--9---------7--7h9~--|
d|----------------------------------------------|
a|----------------------------------------------|
E|----------------------------------------------|
Добавлено: 08.03.2012
Другие материалы по этой песне:
  • Аккорды и текст

Страница создана 08.03.2012
http://primanota.ru/brand-new/sowing-season-yeah-chords.htm
Привет, Гость.
Предлагаем пройти революционный курс по гитаре.
Подарок от PrimaNota.Ru, забирай!