PrimaNota.ru - самый крупный в мире бесплатный архив песенных текстов, аккордов, табулатур и нот


Brand New - Quiet Things - таба, видео

Регистрация Запомнить меня
Войти через:  Facebook Google Twitter Vk Yandex Mail.ru

Brand New - Quiet Things - таба, видео

Печатать
Просмотров: 168
This is a nice acoustic version that pretty much folows the origional song.  I hope you 
enjoy it, its really simple

Tuning is half a step down

Intro (1)

||-----3/2-2----3/2-0---3/2-2---3/2-2--/55---||
||--------3-3------3-3-----3-3-----3-3-/55---||
||-------------------------------------------||
||-----------------------------0-------------||
||---------------------3---------------------||
||---3~-------0~-----------------------------||

Intro (2)

||--33332323------33332323------33332323------3333333322220000---|-3~--||
||--33333333------33333333------33333333------3333333333333333---|-3~--||
||--00000000------00000000------00000000------2222222222222222---|-0~--||
||--00000000--x2--xxxxxxxx--x2--xxxxxxxx--x2--0000000000000000---|-0~--||
||--xxxxxxxx------22222222------33333333-------------------------|-x~--||
||--33333333------00000000---------------------------------------|-3~--||
  Play this section twice twice                                    End on this

Verse 1

||--3-----0-----0-----0------||
||--3-----1-----0-----1------||
||--0-----0-----0-----0------||
||--0-x16-2-x16-2-x16-2-x16--|| x2
||--2-----3-----2-----3------||
||--3-----------0------------||


Chorus

||--33332323------33332323------33332323------3333333322220000---|-3~--||
||--33333333------33333333------33333333------3333333333333333---|-3~--||
||--00000000------00000000------00000000------2222222222222222---|-0~--||
||--00000000--x2--xxxxxxxx--x2--xxxxxxxx--x2--0000000000000000---|-0~--|| x2
||--xxxxxxxx------22222222------33333333-------------------------|-x~--||
||--33333333------00000000---------------------------------------|-3~--||


Verse 2

||--3-----0-----0-----0------||
||--3-----1-----0-----1------||
||--0-----0-----0-----0------||
||--0-x16-2-x16-2-x16-2-x16--|| x2
||--2-----3-----2-----3------||
||--3-----------0------------||

Chorus

||--33332323------33332323------33332323------3333333322220000---|-3~--||
||--33333333------33333333------33333333------3333333333333333---|-3~--||
||--00000000------00000000------00000000------2222222222222222---|-0~--||
||--00000000--x2--xxxxxxxx--x2--xxxxxxxx--x2--0000000000000000---|-0~--|| x2
||--xxxxxxxx------22222222------33333333-------------------------|-x~--||
||--33333333------00000000---------------------------------------|-3~--||

Interlude
Here if you have two guitars, play the verse chords quietly after playing this once

||-----3/2-2----3/2-0---3/2-2---3/2-2--/55---||
||--------3-3------3-3-----3-3-----3-3-/55---||
||-------------------------------------------||
||-----------------------------0-------------|| x2
||---------------------3---------------------||
||---3~-------0~-----------------------------||

||--3-----0-----0-----0------||
||--3-----1-----0-----1------||
||--0-----0-----0-----0------||
||--0-x16-2-x16-2-x16-2-x16--|| x2
||--2-----3-----2-----3------||
||--3-----------0------------||

Play around with the high e here, replicating the picking part

Chorus
Play really hard here, big finish

||--33332323------33332323------33332323------3333333322220000---||
||--33333333------33333333------33333333------3333333333333333---||
||--00000000------00000000------00000000------2222222222222222---||
||--00000000--x2--xxxxxxxx--x2--xxxxxxxx--x2--0000000000000000---||
||--xxxxxxxx------22222222------33333333-------------------------||
||--33333333------00000000---------------------------------------||

||--33333x----33332323------33332323------3333333322220000---||
||--33333x----33333333------33333333------3333333333333333---||
||--00000x----00000000------00000000------2222222222222222---||
||--00000x----xxxxxxxx--x2--xxxxxxxx--x2--0000000000000000---||
||--xxxxxx----22222222------33333333-------------------------||
||--33333x----00000000---------------------------------------||

||--33332323------33332323------33332323------3333333322220000---||
||--33333333------33333333------33333333------3333333333333333---||
||--00000000------00000000------00000000------2222222222222222---||
||--00000000--x2--xxxxxxxx--x2--xxxxxxxx--x2--0000000000000000---||
||--xxxxxxxx------22222222------33333333-------------------------||
||--33333333------00000000---------------------------------------||


Finally, end on this

||--2-3--/15--||
||--3-3-------||
||--0-0-------||
||--0-0-------|| x2
||--x-x-------||
||--3-3-------||
Добавлено: 21.07.2012
Другие материалы по этой песне:
  • Аккорды и текст

Страница создана 24.06.2012
http://primanota.ru/brand-new/quiet-things-chords.htm
Привет, Гость.
Предлагаем пройти революционный курс по гитаре.
Подарок от PrimaNota.Ru, забирай!