PrimaNota.ru - самый крупный в мире бесплатный архив песенных текстов, аккордов, табулатур и нот


Brand New - Flying At Tree Level - текст песни, таба, бас-таба, видео

Регистрация Запомнить меня
Войти через:  Facebook Google Twitter Vk Yandex Mail.ru

Brand New - Flying At Tree Level - текст песни, таба, бас-таба, видео

Печатать
Просмотров: 109
Artist: Brand New
Song: Flying At Tree Level
Album: ?
Tuning: Dropped Half Step
Tabbed by: Cody 
Direct any questions to xyour_favorite_wordsx@yahoo.com
   Both Guitars
|------------------------------------|
|------------------------------------|
|--2-2--2------------5-5--5----------|
|--2-2--2---5-5--5---5-5--5---3-3--3-| x3
|--0-0--0---5-5--5---3-3--3---3-3--3-|
|-----------3-3--3------------1-1--1-|
  pm pm    pm pm    pm pm    pm pm
   Both
|-------------------------------------|
|-------------------------------------|
|--2-2--2------------5-5--5-----------|
|--2-2--2---5-5--5---5-5--5---3-3-3-3-|
|--0-0--0---5-5--5---3-3--3---3-3-3-3-|
|-----------3-3--3------------1-1-1-1-|
  pm pm    pm pm    pm pm   
    Both
|------------------------------------|
|------------------------------------|
|--2-2--2------------5-5--5----------|
|--2-2--2---5-5--5---5-5--5---3-3--3-| x4
|--0-0--0---5-5--5---3-3--3---3-3--3-|
|-----------3-3--3------------1-1--1-|
  pm pm    pm pm    pm pm    pm pm
     Guitar 1
|-------------------------------------------------|
|--------------------------------5~----5----------|
|------------------------5---7-------------7---5--|
|----------------5---7----------------------------|
|-------------------------------------------------|
|-------------------------------------------------|
   Guitar 1
|-------------------------------------------------|
|-----------------------------5~----5-------------|
|---------------------5---7-------------7---5---4~|
|-------------5---7-------------------------------|
|-------------------------------------------------|
|-------------------------------------------------|
   Guitar 2 (plays during the 2 lines above))
|----------------------------------------------------|
|----------------------------------------------------|
|------2----------------5----------------------------|
|----2---0-----5------5---5-----3--------------------| x4
|--0---------5---5--3---------3---3------------------|
|----------3----------------1------------------------|
   Guitar 2
|-------------------|
|-------------------|
|-------------------|
|--2-2-2-2-2-2-2-2--|
|--2-2-2-2-2-2-2-2--|
|--0-0-0-0-0-0-0-0--|
    Both Guitars
|------------------------------------|
|------------------------------------|
|--2-2--2------------5-5--5----------|
|--2-2--2---5-5--5---5-5--5---3-3--3-| x3
|--0-0--0---5-5--5---3-3--3---3-3--3-|
|-----------3-3--3------------1-1--1-|
  pm pm    pm pm    pm pm    pm pm
    Both
|-------------------------------------|
|-------------------------------------|
|--2-2--2------------5-5--5-----------|
|--2-2--2---5-5--5---5-5--5---3-3-3-3-|
|--0-0--0---5-5--5---3-3--3---3-3-3-3-|
|-----------3-3--3------------1-1-1-1-|
  pm pm    pm pm    pm pm 
    Both
|------------------------------------|
|------------------------------------|
|--2-2--2------------5-5--5----------|
|--2-2--2---5-5--5---5-5--5---3-3--3-| x4
|--0-0--0---5-5--5---3-3--3---3-3--3-|
|-----------3-3--3------------1-1--1-|
  pm pm    pm pm    pm pm    pm pm
    Guitar 1
|-------------------------------------------------|
|--------------------------------5~----5----------|
|------------------------5---7-------------7---5--|
|----------------5---7----------------------------|
|-------------------------------------------------|
|-------------------------------------------------|
  Guitar 1
|-------------------------------------------------|
|-----------------------------5~----5-------------|
|---------------------5---7-------------7---5---4~|
|-------------5---7-------------------------------|
|-------------------------------------------------|
|-------------------------------------------------|
   Guitar 2 (plays during the 2 lines above)
|----------------------------------------------------|
|----------------------------------------------------|
|------2----------------5----------------------------|
|----2---0-----5------5---5-----3--------------------| x4
|--0---------5---5--3---------3---3------------------|
|----------3----------------1------------------------|
   Guitar 2
|-------------------|
|-------------------|
|-------------------|
|--2-2-2-2-2-2-2-2--|
|--2-2-2-2-2-2-2-2--|
|--0-0-0-0-0-0-0-0--|
   Both Guitars
|------------------------------------------------------------------|
|------------------------------------------------------------------|
|--2-2-2-2-2-2-2-2-2-2-2-2-2-2-5-5-5-5-5-5-5-5---------------------|
|--2-2-2-2-2-2-2-2-2-2-2-2-2-2-5-5-5-5-5-5-5-5-5-5-5-5-3-3-3-3-3-2-| x3
|--0-0-0-0-0-0-0-0-0-0-0-0-0-0-3-3-3-3-3-3-3-3-5-5-5-5-3-3-3-3-3-2-|
|----------------------------------------------3-3-3-3-1-1-1-1-1-0-|
   Both
|---------------------------------------------------------------------------|
|---------------------------------------------------------------------------|
|--2-2-2-2-2-2-2-2-2-2-2-2-2-2----------------------------------------------|
|--2-2-2-2-2-2-2-2-2-2-2-2-2-2-5-5-5-5-5-5-5-5-3-3-3-3-3-3-3-3-2-2-2-2-2-2-2|
|--0-0-0-0-0-0-0-0-0-0-0-0-0-0-5-5-5-5-5-5-5-5-3-3-3-3-3-3-3-3-2-2-2-2-2-2-2|
|------------------------------3-3-3-3-3-3-3-3-1-1-1-1-1-1-1-1-0-0-0-0-0-0-0|
   Guitar 1
|-------------------------------------------------|
|--------------------------------5~----5----------|
|------------------------5---7-------------7---5--|
|----------------5---7----------------------------| x 7
|-------------------------------------------------|
|-------------------------------------------------|
   Guitar 2
|----------------------------------------------------|
|----------------------------------------------------|
|------2----------------5----------------------------|
|----2---0-----5------5---5-----3--------------------| x1
|--0---------5---5--3---------3---3------------------|
|----------3----------------1------------------------|
  Guitar 2
|---------------------------------------------------------------| 
|---------------------------------------------------------------|
|--2--2-2----------5--5-5---------------------------------------|
|--2--2-2--5--5-5--5--5-5--3--3-3-------------------------------| x6
|--0--0-0--5--5-5--3--3-3--3--3-3-------------------------------|
|----------3--3-3----------1--1-1-------------------------------|
   Guitar 2
|------------------------------------------------------------------|
|------------------------------------------------------------------|
|------------------------------------------------------------------|
|-2-2-2-2-2-2-2-2--2-----------------------------------------------|
|-2-2-2-2-2-2-2-2--2-----------------------------------------------|
|-0-0-0-0-0-0-0-0--0-----------------------------------------------|


Добавлено: 22.06.2013
Другие материалы по этой песне:

Страница создана 15.03.2012
http://primanota.ru/brand-new/flying-at-tree-level-chords.htm
Привет, Гость.
Предлагаем пройти революционный курс по гитаре.
Подарок от PrimaNota.Ru, забирай!