PrimaNota.ru - самый крупный в мире бесплатный архив песенных текстов, аккордов, табулатур и нот


Brand New - Daisy (album) - таба, видео

Регистрация Запомнить меня
Войти через:  Facebook Google Twitter Vk Yandex Mail.ru

Brand New - Daisy (album) - таба, видео

Печатать
Просмотров: 77
-------------------------------------------------------------------------------
                             DAISY - Brand New
-------------------------------------------------------------------------------
Tabbed by:Tjlax03
E-mail:Tjlax03@gmail.com
I organized all of the songs for this album into one tab to make it easier to read. All of the authors names 
are next to the tabs.
Tuning:Standard unless otherwise noted. Some songs in Drop D and C Standard

1. Vices-Ryan W
2. Bed
3. At the Bottom-mitchrosko
4. Gasoline-Twikki
5. You Stole-axethrower13
6. Be Gone-Taylor Harris
7. Sink-Webb
8. Bought a Bride-Alex Barrera
9. Daisy-raminile
10. In a Jar-Jasoncow
11. Noro-Greenpic

-------------------------------------------------------------------------------------------------------------
1. Vices-
-------------------------------------------------------------------------------------------------------------

Opening:
e|-----------------------|
B|-----------------------|
G|-5-5-5-5-5-5-5-5-5-5---|
D|-5-5-5-5-5-5-5-5-5-5---|
A|-3-3-3-3-3-3-3-3-3-3---|
D|-----------------------|

riff 1

e|-12----------15----12p0h12-------------------14---|
B|----10-13------------------10-13----------13------|
G|----------11--------------------11/12-------------|
D|--------------------------------------------------|
A|--------------------------------------------------|
E|--------------------------------------------------|x3

riff 2
on the 3rd time you go from D-5 straight into the slide
e|-----------------------------|-----------|
B|-----------------------------|-----------|
G|-2-2-2--5-5-5----------------|-----------|
D|--------------5-5-5-1-1-1-0-0|-5-5-5-5/7-|
A|-----------------------------|-----------|
D|--------------------------x3-|-------x3--|
P.M . . . . . . . . . . . . . .  . . . .

then
e|-----------------------|
B|-----------------------|
G|-5-5-5-5-5-5-5-5-5-5---|
D|-5-5-5-5-5-5-5-5-5-5---|
A|-3-3-3-3-3-3-3-3-3-3---|
E|-----------------------|

e|-12----------15----12p0h12-------------------14---|
B|----10-13------------------10-13----------13------|
G|----------11--------------------11/12-------------|
D|--------------------------------------------------|
A|--------------------------------------------------|
D|--------------------------------------------------|x3

on the 3rd time you go from D-5 straight into the slide
e|-----------------------------|-----------|
B|-----------------------------|-----------|
G|-2-2-2--5-5-5----------------|-----------|
D|--------------5-5-5-1-1-1-0-0|-5-5-5-5/7-|
A|-----------------------------|-----------|
E|--------------------------x3-|-------x3--|
P.M . . . . . . . . . . . . . .  . . . .
fill:
e|-----------|------------|
B|-----------|------------|
G|-----------|------------|
D|---------2/|5-5-5/7---x3|
A|-3p0-------|------------|
D|-----3p0---|------------|

Vin Solo:
On the last strum to a pinch harmonic with your thumb on the note and hold it, then 
theres about 3-4 sec of pick slides and finger slides i'll try to map it out... then it ends 
the same pinch harmonic.

e|---------------------------------------|
B|---------------------------------------|
G|-5-5-5-5-5-5-5-5-5-+5------------------|
D|-5-5-5-5-5-5-5-5-5-+5------------------|
A|-3-3-3-3-3-3-3-3-3-+3-x3 then pinch----|
D|---------------------------------------|

I'M not a pro guitar player so excuse my terminology if its not right.

youd still be holding the note here then slide

e|---------------------------------------------------------------|
B|---------------------------------------------------------------|
G|-+5/-----------------------------------------------------------|
D|-+5/-all the way up and back down then ------------------------|
A|-+3/---mix in a pickscrape or 2--------------------------------|
D|--------then pluck the same note without pushing down----------|

which then leads you to this slide basically slide from this note up and down from the 
note to get the effect

e|---------------------------------------------------------------|
B|---------------------------------------------------------------|
G|---------------------------------------------------------------|
D|----12/13/12/14/13/14/13/15/14/16/15/17/16/18/17/19~-----------|
A|--- -----------------------------------------------------------|
D|--basically back and forth up to 19----------------------------|


cont.

e|----------------------------------------------------------------------|
B|---------------------------------------------13-----------------------|
G|------/15-----14---12-----/14h15p14h15p14h15----15/1/5----5-5-5-5/7---|
D|19~/1-----------------------------------------------------------------|
A|--- ------------------------------------------------------------------|
D|----------------------------------------------------------------------|
P.M                                                         . . .

e|------------------------|
B|------------------------|
G|-5-5-5-5-5-5-5-5-5-+5---|
D|-5-5-5-5-5-5-5-5-5-+5---|
A|-3-3-3-3-3-3-3-3-3-+3---|
D|------------------------|


e|-12----------15----12p0h12-------------------14---|
B|----10-13------------------10-13----------13------|
G|----------11--------------------11/12-------------|
D|--------------------------------------------------|
A|--------------------------------------------------|
D|--------------------------------------------------|x3

e|-----------------------------|-----------|
B|-----------------------------|-----------|
G|-2-2-2--5-5-5----------------|-----------|
D|--------------5-5-5-1-1-1-0-0|-5-5-5-5/7-|
A|-----------------------------|-----------|
D|--------------------------x3-|-------x3--|
P.M . . . . . . . . . . . . . .  . . . .

e|------------------------|
B|------------------------|
G|-5-5-5-5-5-5-5-5-5-5----|
D|-5-5-5-5-5-5-5-5-5-5----|
A|-3-3-3-3-3-3-3-3-3-3----|
D|------------------------|

-------------------------------------------------------------------------------------------------------------
2. Bed
-------------------------------------------------------------------------------------------------------------

verse
e-------------------------------------------------------------------|
B-------------------------------------------------------------------|
G---------9-----9-----7-----9-----7---------------------------------|
D-------9-----9-----9-----9-----9-----------------------------------|
A-----7-----7-----7-----7-----7-------------------------------------|
E-------------------------------------------------------------------|

e-------------------------------------------------------------------|
B-------------------------------------------------------------------|
G---------7-----5-----------4-----2---------------------------------|
D-------7-----7-----7-----4-----4-----------------------------------|
A-----5-----5-----5-----2-----2-------------------------------------|
E-------------------------------------------------------------------|

chorus

Em G Am C

Bridge
e-----------------------------------------------------------------------|
B------------------1----------------------------------------------------|
G----------0-----2-------0----------------------------------------------|
D--------0-----2-------2---2-----2--------------------------------------|
A------2-----0-------3---------2---2------------------------------------|
E----3-----------------------0------------------------------------------|

G Am Em Em Am C Em G Am C

Outro


Em           
My head is lead, I don't ever want to go to bed
D                  Bm
Your hair is on fire.
Em   
You snuff the blaze, turn to vapor, then you float away
D                       Bm
We got into a bad fight.

Em 
Later on the bed
G
Later on the bed
Am
Later on the bed
C
Later on the bed
Em
Later on the bed
G
Later on the bed
Am
Later on the bed
C

Em
My eyes are lungs, I'm a prophet and I speak in tongues
D                  Bm
I know how you'll die.
Em
Your sister groans, oh usurper to the holy throne
D                             Bm
To me she's just a dead spy.

Em
Later on the bed
G
Later on the bed
Am
Later on the bed
C
Lie to all your friends
Em
Lie to all your friends
G
Lie to all your friends
Am
Lie to all your friends
C

G    Am    C    Em
G    Am    C    Em

Am                                C
I don't know what you feel like
Em
Ambushed on a road, stole your gold
Em
You're a rose and you're laughing now.
Am                                   C 
Everything that I owned starts to pile up
Em
Like bones make the walls of a prison
Em              Am
Later on the bed
                    C
Later on the bed

Em
I don't ever wanna go to bed,
D                        Bm
Please stay up for the fight.
Em
The champ goes down like a clown in the second round,
D                         Bm
I wish we'd had a better goodbye.

(Em / G / Am / C)

Lie to all your friends
Later in bed 

-------------------------------------------------------------------------------------------------------------
3. At the Bottom
-------------------------------------------------------------------------------------------------------------

Intro:

e-----------------------------------------------------------------------|
b-----------------------------------------------------------------------|
g------------0--------------------------5b----------2b-----0------------|
d------2-------------------------2---------------------------0--2-2---0-|
a----0----------5--5/7--------3-----------------3---------------3-3---2-|
E---------------------------------------------1-----------------------3-|

e--------------12--------------------12--------12\-----------|
b------------12---12---------------12--12------12\-----------|
g---------14---------14----------14------14----12\-----------|
d------14--------------14------14----------------------------|
a----12------------------12--12------------------------------|
E------------------------------------------------------------|

Verse:
e-----------------------------------------------|
b--------3-------------------3------------------|
g------------------4---------------------4b-----|
d-----2---------2----------2----------2---------|
a---0---------0----------0----------0-----------|
E-----------------------------------------------|

Well I make little lies...
e|------------------------------------|
B|------------------------------------|
G|------------------------------------|
D|-5555555555555555-44444444-33333333-|
A|-5555555555555555-44444444-33333333-|
E|-3333333333333333-22222222-11111111-|

Verse x1:
e-----------------------------------------------|
b--------3-------------------3------------------|
g------------------4---------------------4b-----|
d-----2---------2----------2----------2---------|
a---0---------0----------0----------0-----------|
E-----------------------------------------------|

And if I wanted to die...
e|------------------------------------|
B|------------------------------------|
G|------------------------------------|
D|-5555555555555555-44444444-33333333-|
A|-5555555555555555-44444444-33333333-|
E|-3333333333333333-22222222-11111111-|

Chorus:
e|--------------------------------------------------------------------|
B|--------------------------------------------------------------------|
G|-2222222222222222222222222222222------------------------------------|
D|-2222222222222222222222222222222-3333333333333333-55555555/66666666-|x2
A|-0000000000000000000000000000000-3333333333333333-55555555/66666666-|
E|---------------------------------1111111111111111-33333333/44444444-|


Verse:
e-----------------------------------------------|
b--------3-------------------3------------------|
g------------------4---------------------4b-----|
d-----2---------2----------2----------2---------|
a---0---------0----------0----------0-----------|
E-----------------------------------------------|

Prechorus:
e|------------------------------------|
B|------------------------------------|
G|------------------------------------|
D|-5555555555555555-44444444-33333333-|
A|-5555555555555555-44444444-33333333-|
E|-3333333333333333-22222222-11111111-|

e-----------------------------------------------|
b--------3-------------------3------------------|
g------------------4---------------------4b-----|
d-----2---------2----------2----------2---------|
a---0---------0----------0----------0-----------|
E-----------------------------------------------|

e|------------------------------------|
B|------------------------------------|
G|------------------------------------|
D|-5555555555555555-44444444-33333333-|
A|-5555555555555555-44444444-33333333-|
E|-3333333333333333-22222222-11111111-|


Chorus
e|--------------------------------------------------------------------|
B|--------------------------------------------------------------------|
G|-2222222222222222222222222222222------------------------------------|
D|-2222222222222222222222222222222-3333333333333333-55555555/66666666-|x2
A|-0000000000000000000000000000000-3333333333333333-55555555/66666666-|
E|---------------------------------1111111111111111-33333333/44444444-|


Solo
e|-----------------------------------------------|
B|--12-12-12-12-13-13-13-13-12h13p10-12p10-8-----|
G|-------------------------------------------9---|
D|-----------------------------------------------|
A|-----------------------------------------------|
E|-----------------------------------------------|

e|--------------------------10h12p10-----------------|
B|--12-12-12-12-13-13-13-13---------13-15-13-12-15---|
G|---------------------------------------------------|
D|---------------------------------------------------|
A|---------------------------------------------------|
E|---------------------------------------------------|

e|-----------------------------------------------|
B|--12-12-12-12-13-13-13-13-12h13p10-12p10-8-----|
G|-------------------------------------------9---|
D|-----------------------------------------------|
A|-----------------------------------------------|
E|-----------------------------------------------|

e|--------------------------------15-15-17-17-19-19-21b--|
B|--12-12-13-13-15-15-17-17-19-19------------------------|
G|-------------------------------------------------------|
D|-------------------------------------------------------|
A|-------------------------------------------------------|
E|-------------------------------------------------------|

Chorus:
e|--------------------------------------------------------------------|
B|--------------------------------------------------------------------|
G|-2222222222222222222222222222222------------------------------------|
D|-2222222222222222222222222222222-3333333333333333-55555555/66666666-|x2
A|-0000000000000000000000000000000-3333333333333333-55555555/66666666-|
E|---------------------------------1111111111111111-33333333/44444444-|

Outro:
e-----------------------------------------------|
b--------3-------------------3------------------|
g------------------4---------------------4b-----|
d-----2---------2----------2----------2---------|
a---0---------0----------0----------0-----------|
E-----------------------------------------------|


-------------------------------------------------------------------------------------------------------------
4. Gasoline
-------------------------------------------------------------------------------------------------------------

Intro/Verse:

(I'm afraid you're going to have to figure out a strumming pattern because is 
weird (Mostly Downstrokes))

e|-------------|
B|-------------|
G|-------------|
D|----9---4--5-|
A|-2--10--5--7-|
E|-0--0---0--0-|

Chorus:

e-----------|
b-----------|
g-0---------|
d-2--5--4---|
a-0--5--3---|
e----3--1---|



Lyrics:

She tried to put a fire out, she used gasoline
When the congregation gathered round,
It's screaming 'it wasn't me'.

So there's a sickness that is going round, no one's got a vaccine.
Think we're treading holy water, I think it's time we all come clean.

I swear it's like trying to catch a ghost,
Like I'm dying to hold smoke.
It feels like I'm trying to catch a ghost,
It's like I'm dying to hold smoke.

When the army had to hold the line, you were nowhere near the front;
Before the kids could tell the dog goodbye, you were loading up your gun.
I want to know what is the great divide,
I want to know what I've become.
You're thinking no one else is lonesome, you think that you're the only one.

It feels like I'm jumping towards a train,
It feels like I'm jumping towards a train.

We all try to fake a way!

It feels like I'm jumping towards a train,
It feels like I'm jumping towards a train.

We all try to fake a way! 



At 1:22 another part comes in that continues the rest of the song.
Goes something like this.


e|----------------------------------------|
b|----------------------------------------|
g|----------------------------------------|
d|----------------------------------------|
a|--7-7-7-7---5-5-5-5---4-4-4-4---2-2-2-2-|
e|0---------0---------0---------0---------|

sometimes i like to play it like this too
e|----------------------------------------|
b|----------------------------------------|
g|----------------------------------------|
d|--5-5-5-5---4-4-4-4---2-2-2-2---2-2-2-2-|
a|--7-7-7-7---5-5-5-5---4-4-4-4---2-2-2-2-|
e|0---------0---------0---------0---------|
[\tab]

Also this part at 1:51


e|------------------|
b|------------------|
g|------------------|
d|------------------|
a|---2/7~-----2/8-7-|
e|-0--------0-------|

-------------------------------------------------------------------------------------------------------------
5. You Stole
-------------------------------------------------------------------------------------------------------------

Intro/Verse: 0:00-1:54 (light palm mute throughout)
e|-------------------------------------------------------------------|
B|-------------------------------------------------------------------|
G|------2-2-2-2-2-2-2-2---2-2-2-2-2-2-2-2----------------------------|
D|------3-3-3-3-3-3-3-3---2-2-2-2-2-2-2-2----------------------------|
A|------0-0-0-0-0-0-0-0---0-0-0-0-0-0-0-0----------------------------|
E|-------------------------------------------------------------------|
Guitar 2 0:00-1:54
e|------------------------------8-8-8-8-8-8--------------------------|
B|------------------------------8-8-5-5-6-6--------------------------|
G|-------------------------------------------------------------------|
D|-------------------------------------------------------------------|
A|-------------------------------------------------------------------|
E|-------------------------------------------------------------------|
Guitar 3 0:57-1:53(that chord has lots of tremolo and im not sure what chord it is)
e|---------------------------------5---------------------------------|
B|---------------------------------3---------------------------------|
G|---------------------------------2---------------------------------|
D|---------3/5---2-2-2-2-2---------2---------------------------------|
A|------0------------------5-3-0-------------------------------------|
E|-------------------------------------------------------------------|

Chorus: 1:54-2:36
e|-------------------------------------------------------------------|
B|-------------------------------------------------------------------|
G|-------------------------------------------------------------------|
D|----7-----10-----5-----5------7-----5-----10-----10----------------|
A|----7x16--10x16--5x16--5x16---7x16--5x16--10x16--10x16-------------|
E|----5-----8------3-----3------5-----3-----8------8-----------------|

Intro/Verse: 2:36-3:33
Guitar 1 (from 2:55 to 3:33, heavy distortion, no palm mute)
e|-----------------------------------------|
B|-----------------------------------------|
G|------2-2-2-2-2-2-2-2---2-2-2-2-2-2-2-2--|
D|------3-3-3-3-3-3-3-3---2-2-2-2-2-2-2-2--|PM all with exception above
A|------0-0-0-0-0-0-0-0---0-0-0-0-0-0-0-0--|
E|-----------------------------------------|
Guitar 2 2:36-2:55(that chord has lots of tremolo and im not sure what chord it is)
e|--------------------------------5-----------------------------------|
B|--------------------------------3-----------------------------------|
G|--------------------------------2-----------------------------------|
D|---------3/5---2-2-2-2-2--------2-----------------------------------|
A|------0------------------5-3-0--------------------------------------|
E|--------------------------------------------------------------------|


Guitar 3 2:59-3:14 (figure out your own timing on this part)
e|--------------------------------------------------------------------|
B|--------------------------------------------------------------------|
G|---------10vb10vb10vb10vb10vb10vb10vb9vb----------------------------|
D|--------------------------------------------------------------------|
A|--------------------------------------------------------------------|
E|--------------------------------------------------------------------|

Solo 3:14-3:33 (Guitar 1 continues after 3:33 under the solo)
Guitar 2
e|--------------------------------------------------------------------|
B|------|8-10v--8-10v--8-10v--8-10/13|x3--13-15v-15-13v-13-12v-12-10--|
G|--------------------------------------------------------------------|
D|--------------------------------------------------------------------|
A|--------------------------------------------------------------------|
E|--------------------------------------------------------------------|

Chorus: 3:33-4:13
e|--------------------------------------------------------------------|
B|--------------------------------------------------------------------|
G|--------------------------------------------------------------------|
D|----7-----10-----5-----5------7-----5-----10-----10-----------------|
A|----7x16--10x16--5x16--5x16---7x16--5x16--10x16--10x16--------------|
E|----5-----8------3-----3------5-----3-----8------8------------------|

Outro 4:13-4:53
Guitar 1
e|---------------------------------------------------------------------|
B|------|8-10v--8-10v--8-10v--8-10/13|x3--13-15v-15-13v-13-12v-12-10---|
G|---------------------------------------------------------------------|
D|---------------------------------------------------------------------|
A|---------------------------------------------------------------------|
E|---------------------------------------------------------------------|
Guitar 2 4:53-5:52 (that chord has lots of tremolo and im not sure what chord it is)
e|---------------------------------5------------------------------------|
B|---------------------------------3------------------------------------|
G|---------------------------------2------------------------------------|
D|---------3/5---2-2-2-2-2---------2------------------------------------|
A|------0------------------5-3-0----------------------------------------|
E|----------------------------------------------------------------------|



-------------------------------------------------------------------------------------------------------------
6. Be Gone
-------------------------------------------------------------------------------------------------------------


Tuning: Slightly lower than C standard [C F Bb Eb G c]

        The tuning is ultra low. It's essentially C standard.
        HOWEVER, it is actually like a quarter of a step lower.
        Tune to C and then tweak it all a little lower and you'll be close.
        It's right between B and C. 

Luckily, there are lots of open notes on the lowest string, 
so your best bet is to tune from that.

Keep this in mind when you rate it please.

Intro
c |-----/7--p0---------------0-----------------------------------|
G |------------3h5p3p0----3~p0-----------------------------------|
Eb|--------------------2~----------2h4p2p0-----------------------|
Bb|----------------------------------------2~--------------------|
F |--------------------------------------------------------------|
C |--0---------0----------------0------------------------[x2]----|

"It's getting hard to stand up..."
c |------0---0---0---0-0-----0-0---------------------------------|
G |---/5---5--/7~--7~--7b(8)-3-0---------------------------------|
Eb|-------------------------------0-0----------------------------|
Bb|--------------------------------------------------------------|
F |--------------------------------------------------------------|
C |----0------0--------0---------------------------------[x1]----|

c |-----/7--p0---------------0-----------------------------------|
G |------------3h5p3p0----3~p0-----------------------------------|
Eb|--------------------2~----------2h4p2p0-----------------------|
Bb|----------------------------------------2~--------------------|
F |--------------------------------------------------------------|
C |--0---------0----------------0------------------------[x1]----|

"He'll try to make my heart break..."
c |------0---0---0---0-0-----0-0---------------------------------|
G |---/5---5--/7~--7~--7b(8)-3-0---------------------------------|
Eb|-------------------------------0-0----------------------------|
Bb|--------------------------------------------------------------|
F |--------------------------------------------------------------|
C |----0------0--------0---------------------------------[x1]----|

"They're calling my name..."
c |-----/7--p0---------------0-----------------------------------|
G |------------3h5p3p0----3~p0-----------------------------------|
Eb|--------------------2~----------2h4p2p0-----------------------|
Bb|----------------------------------------2~--------------------|
F |--------------------------------------------------------------|
C |--0---------0----------------0------------------------[x2]----|

"They won't slow the car down..."
c |------0---0---0---0-0-----0-0---------------------------------|
G |---/5---5--/7~--7~--7b(8)-3-0---------------------------------|
Eb|-------------------------------0-0----------------------------|
Bb|--------------------------------------------------------------|
F |--------------------------------------------------------------|
C |----0------0--------0---------------------------------[x1]----|


"The one that is calling my name..."
c |------0---0---0---0-0-----0-0---------------------------------|
G |---/5---5--/7~--7~--7b(8)-3-0---------------------------------|
Eb|-------------------------------0-0----------------------------|
Bb|--------------------------------------------------------------|
F |--------------------------------------------------------------|
C |----0------0--------0---------------------------------[x1]----|

"They're calling my name..."
c |-----/7--p0---------------0----------------0------------------|
G |----------5-3h5p3p0----3~p0----------------0------------------|
Eb|--------------------2~---------2h4p2p0------------------------|
Bb|---------------------------------------2~---------------------|
F |--------------------------------------------------------------|
C |--0---------0----------------0------------------------[x3]----|

"Calling my name"
c |-----/7--p0---------------0------0----------------------------|
G |----------5-3h5p3p0----3~p0------0----------------------------|
Eb|--------------------2~---------------0------------------------|
Bb|--------------------------------------------------------------|
F |--------------------------------------------------------------|
C |--0---------0----------------0------------------------[x1]----|


-------------------------------------------------------------------------------------------------------------
7. Sink
------------------------------------------------------------------------------------------------------------

Tuning: Drop D
 Simple way to play this song with one guitar

into/ verse 1
e|---------------------|----------------------|
B|---------------------|----------------------|
G|------------4p2------|---5-5-5-5-5-5-2-2-2--|
D|-2--2--2--2----------|---5-5-5-5-5-5-2-2-2--|
A|-2--2--2--2----------|---3-3-3-3-3-3-0-0-0--|
D|-2--2--2--2------x8--|----------------------|
p.m .  .  .  .
e|------------------------------------------------------|-----------------------|
B|---------------------------------3------------------5-|-----------------------|
G|------------2h4p2-------------2h4---------------2h4---|-5-5-5-5-5-5-2-2-2-----|
D|-2--2--2--2--------2--2--2--2-------2--2--2--2--------|-5-5-5-5-5-5-2-2-2-----|
A|-2--2--2--2--------2--2--2--2-------2--2--2--2--------|-3-3-3-3-3-3-0-0-0-x2--|
D|-2--2--2--2--------2--2--2--2-------2--2--2--2--------|-----------------------|
p.m.  .  .  .        .  .  .  .       .  .  .  .

chorus 1
e|-----------------------------------|
B|-----------------------------------|
G|----------------5-5-5-5-5-5-2-2-2--|
D|--2--2--2--5----5-5-5-5-5-5-2-2-2--|
A|--2--2--2--5----3-3-3-3-3-3-0-0-0--|
D|--2--2--2--5-x3--------------------|

verse 2
e|---------------------|----------------------|
B|---------------------|----------------------|
G|------------4p2------|---5-5-5-5-5-5-2-2-2--|
D|-2--2--2--2----------|---5-5-5-5-5-5-2-2-2--|
A|-2--2--2--2----------|---3-3-3-3-3-3-0-0-0--|
D|-2--2--2--2------x4--|----------------------|
p.m .  .  .  .


e|------------------------------------------------------|-----------------------|
B|---------------------------------3------------------5-|-----------------------|
G|------------2h4p2-------------2h4---------------2h4---|-5-5-5-5-5-5-2-2-2-----|
D|-2--2--2--2--------2--2--2--2-------2--2--2--2--------|-5-5-5-5-5-5-2-2-2-----|
A|-2--2--2--2--------2--2--2--2-------2--2--2--2--------|-3-3-3-3-3-3-0-0-0-x2--|
D|-2--2--2--2--------2--2--2--2-------2--2--2--2--------|-----------------------|
p.m.  .  .  .        .  .  .  .       .  .  .  .

chorus 2

e|---------------------------------------------------|
B|---------------------------------------------------|
G|---------------------------------------------------|
D|-2-2-2-5---2-2-2-7-5---2-2-2-5--5-5-5-5-5-5-2-2-2--|
A|-2-2-2-5---2-2-2-7-5---2-2-2-5--5-5-5-5-5-5-2-2-2--|
D|-2-2-2-5---2-2-2-7-5---2-2-2-5--3-3-3-3-3-3-0-0-0--|

cont.
e|----------------------------|-------------------------|
B|----------------------------|-------------------------|
G|----------------------------|-------------------------|
D|-2-2-2-5---2-2-2-5---2-2-2-5|--5-5-5-5-5-5-2-2-2------|
A|-2-2-2-5---2-2-2-5---2-2-2-5|--5-5-5-5-5-5-2-2-2------|
D|-2-2-2-5---2-2-2-5---2-2-2-5|--3-3-3-3-3-3-0-0-0--x3--|

Bridge
e|-------------------|    -----------------|-------------------------|-----|
B|-------------------|    -----------------|-------------------------|-----|
G|-------------------|    -----------------|------------------5555522|-----|
D|-2------5-----7----|    -2-----5-----7---|------2-2-22-5-5--5555522|-----|
A|-2------5-----7----|    -2-----5-----7---|------2-2-22-5-5--3333300|-----|
E|-2-x14--5-x4--7-x4-|x1  -2-x8--5-x4--7-x4| x3---2-2-22-5-5x3--------|x2--|
P.M.      .     .     .      .     .

chorus 2

e|---------------------------------------------------|
B|---------------------------------------------------|
G|---------------------------------------------------|
D|-2-2-2-5---2-2-2-7-5---2-2-2-5--5-5-5-5-5-5-2-2-2--|
A|-2-2-2-5---2-2-2-7-5---2-2-2-5--5-5-5-5-5-5-2-2-2--|
D|-2-2-2-5---2-2-2-7-5---2-2-2-5--3-3-3-3-3-3-0-0-0--|

cont.
e|----------------------------|--------------------------------------------------|
B|----------------------------|--------------------------------------------------|
G|----------------------------|--------------------------------------2-----------|
D|-2-2-2-5---2-2-2-5---2-2-2-5|--5-5-5-5-55-2-2-2------5-5-5-5-7-7-7-2-----------|
A|-2-2-2-5---2-2-2-5---2-2-2-5|--5-5-5-5-55-2-2-2------5-5-5-5-7-7-7-0-----------|
D|-2-2-2-5---2-2-2-5---2-2-2-5|--3-3-3-3-33-0-0-0--x2--3-3-3-3-5-5-5-------------|


-------------------------------------------------------------------------------------------------------------
8. Bought A Bride
------------------------------------------------------------------------------------------------------------


Intro:
e|-----------------------------------|
B|-----------------------------------|
G|-----------------------------------|
D|-----5---5---7---7---5---5---5-----|
A|-5h7---7---7---7---7---7---5---5---|
E|-----------------------------------|

Bass plays for first verse, then:
e|-----------------------------------|
B|-----------------------------------|
G|-----------------------------------|
D|-----0-------0-------0-------4-----|
A|---2---2---2---2---2---2---2---2---|
E|-0-------0-------0-------0---------|


e|-----------------------------------|
B|-----------------------------------|
G|-----------------------------------|
D|-----0-------0-------0-------4-----|
A|---2---2---2---2---2---2---2---2---|
E|-0-------0-------0-------3---------|


e|-----------------------------------|
B|-----------------------------------|
G|-----------------------------------|
D|-----5---5---7---7---5---5---5-----|
A|-5h7---7---7---7---7---7---5---5---|
E|-----------------------------------|

e|-11b12~------------------11b12~------------------|
B|---------10~-12b13b12~-----------10~-12----------|
G|----------------------------------------9w7w9~---|
D|-------------------------------------------------|
A|-------------------------------------------------|
E|-------------------------------------------------|

W here = Whammy bar dive/return

e|---------------------------------|
B|---------------------------------|
G|-----0-------0-------0-------0---|
D|---5---5---5---5---5---5---5-----|
A|-3-------3-------3-------3-------|
E|---------------------------------|

e|------------------------------------|
B|------------------------------------|
G|-----0-------0-------0-------0------|
D|---5---5---5---5---5---5---5--------|
A|-0-------0-------0------------------|
E|-------------------------3----------|

e|-----------------------------------|
B|-----------------------------------|
G|-----------------------------------|
D|-----5---5---7---7---5---5---5-----|
A|-5h7---7---7---7---7---7---5---5---|
E|-----------------------------------|

From what I can tell from the videos, Vin strums up between the nut and the tuning pegs, 
does a whammy dive.


e|-----------------------------------|
B|-----------------------------------|
G|-----------------------------------|
D|-----5---5---7---7---5---5---5-----|
A|-5h7---7---7---7---7---7---5---5---|
E|-----------------------------------|

e|-11b12~------------------11b12~------------------|
B|---------10~-12b13b12~-----------10~-12----------|
G|----------------------------------------9w7w9~---|
D|-------------------------------------------------|
A|-------------------------------------------------|
E|-------------------------------------------------|

e|---------------------------------|
B|---------------------------------|
G|-----0-------0-------0-------0---|
D|---5---5---5---5---5---5---5-----|
A|-3-------3-------3-------3-------|
E|---------------------------------|

e|---------------------------------|
B|---------------------------------|
G|-----0-------0-------0-------0---|
D|---5---5---5---5---5---5---5-----|
A|-0-------0-------0---------------|
E|-------------------------3-------|

e|-----------------------------------|
B|-----------------------------------|
G|-----------------------------------|
D|-----5---5---7---7---5---5---5-----|
A|-5h7---7---7---7---7---7---5---5---|
E|-----------------------------------|


Ending:
e|---------------|
B|---------------|
G|-9-9-9\5-5-7---|
D|-9-9-9\5-5-7---|
A|-7-7-7\3-3-5---|
E|---------------|

e|-------10-------------------10-------12b13-12b13---|
B|-10h12----12-10-------10h12----12-10---------------|
G|----------------11-11------------------------------|
D|---------------------------------------------------|
A|---------------------------------------------------|
E|---------------------------------------------------|

e|---------------------------------|
B|---------------------------------|
G|-----0-------0-------0-------0---|
D|---5---5---5---5---5---5---5-----|
A|-3-------3-------3-------3-------|
E|---------------------------------|

e|---------------------------------|
B|---------------------------------|
G|-----0-------0-------0-------0---|
D|---5---5---5---5---5---5---5-----|
A|-0-------0-------0---------------|
E|-------------------------3-------|

End:
e|-------10----------------------10--------12b13-12b13---|
B|-10h12----12-10-------10-10h12-----12-10---------------|
G|----------------12-12----------------------------------|
D|-------------------------------------------------------|
A|-------------------------------------------------------|
E|-------------------------------------------------------|

e|--15p0-14p0-12p0-10---------|
B|--------------------12-12---|
G|----------------------------|
D|----------------------------|
A|----------------------------|
E|----------------------------|
(Credit to Punx300 for figuring out that part)

e|-------10--------12b13-12b13---|
B|-10h12-----12-10---------------|
G|-------------------------------|
D|-------------------------------|
A|-------------------------------|
E|-------------------------------|



While rhythm plays:
e|---------------|
B|---------------|
G|-9-9-9\5-5-7---|
D|-9-9-9\5-5-7---|
A|-7-7-7\3-3-5---|
E|---------------|

End on
e|-----|
B|-----|
G|-----|
D|-2---|
A|-2---|
E|-0---|

-------------------------------------------------------------------------------------------------------------
9. Daisy
------------------------------------------------------------------------------------------------------------

1st guitar: main riff
|---------------------------------------------------------------|
|----10-----10-----10-----10---------10-----10-----10-----10----|
|-------11-----11-----11-----11---------11-----11-----11-----11-|
|---------------------------------------------------------------|
|-9------------------------------12-----------------------------|
|---------------------------------------------------------------|

|-------------------------------------------------------------------|
|----10-----10-----10-----10---------10-----10---------10-----10----|
|-------11-----11-----11-----11---------11-----11---------9------9--|
|-9------------------------------12----------------11---------------|
|-------------------------------------------------------------------|
|-------------------------------------------------------------------|


2nd guitar (2nd verse)
|-------17----------16----------12----12----12----|
|----14----14----14----14----14----14----14----14-|
|-14----------13----------11----------------------|
|-------------------------------------------------|
|-------------------------------------------------|
|-------------------------------------------------|

2rd Guitar: Before the break
|-----------------------------|
|-----------------------------|
|-11----11----9----9----11~---|
|----11----11---11---11-------|
|-----------------------------|
|-----------------------------|


*Break with main riff and boy talking*
Then back to the verse with..

I'm pretty sure it's the bass that plays this but here it is:
|-------------------------------------------------------|
|-------------------------------------------------------|
|-------------------------------------------------------|
|-------------------------------------------------------|
|-4/7---6-4----7/9---7-6----9/12---119----12/14---x14x--|
|-2/5---4-2----5/7---5-4----7/10---9-7----10/12---x12x--|


3rd Guitar. Play this half palmmuted.
Open up and bend more and more.
|-----------------------|
|-----------------------|
|-6-6-6^6^6^6^6^^6^^6^^-|
|-----------------------|
|-----------------------|
|-----------------------|

3rd guitar chorus riff: (everythings pretty much muted)
|--------------------------------------|
|--------------------------------------|
|--------------------------------------|
|--------------------------------------|
|--------------------------------------|
|-2-2-2-2/14-14-14-14--2-2-2/14-14-14--|

|--------------------------------------|
|--------------------------------------|
|--------------------------------------|
|--------------------------------------|
|--------------------------------------|
|-5-5-5-5/14-14-14-14--5-5-5/14-14-14--|

|--------------------------------------|
|--------------------------------------|
|--------------------------------------|
|--------------------------------------|
|--------------------------------------|
|-2-2-2-2/14-14-14-14--2-2-2/14-14-14--|

Then play this the last time:
|-----------------------|
|-----------------------|
|-6-6-6^6^6^6^6^^6^^6^^-|
|-----------------------|
|-----------------------|
|-----------------------| and repeat the whole thing 3 more times.


2nd guitar chorus (pretty much the same as the verse riff)
|-------17----------16----------12----12----------|
|----14----14----14----14----14----14----14----14-|
|-14----------13----------11----------------11----|
|-------------------------------------------------|
|-------------------------------------------------|
|-------------------------------------------------| x3
Then
|-----------------------------|
|-----------------------------|
|-9--9--11--11--9--9--11--11--|
|-----------------------------|
|-----------------------------|
|-----------------------------|


If you just want to play along in the chorus the main chords are:
*=play 16 times '=play 8 times
|------------------|
|------------------|
|-------4*-7'-6'---|
|-4*-7*-4*-7'-6'---|
|-4*-7*-2*-5'-4'---|
|-2*-5*------------|

Lyrics:

I'm a mountain that has been moved
I'm a river that is all dried up
I'm an ocean nothing floats on
I'm a sky that nothing wants to fly in
I'm a sun that doesn't burn hot
I'm a moon that never shows it's face
I'm a mouth that doesn't smile
I'm a word that no one ever wants to say...

I'm a mountain that has been moved
I'm a fugitive that has no legs to run
I'm a preacher with no pulpit
Spewing a sermon that goes on and on...

Well if we take all these things and we bury them fast
And we'll pray that they turn into seeds, to roots and then grass
It'd be all right, it's all right, it'd be easier that way
Or if the sky opened up and started pouring rain
Like he knew it was time to start things over again
It'd be all right, it's all right, it'd be easier that way          x2


-------------------------------------------------------------------------------------------------------------
10. In a Jar
------------------------------------------------------------------------------------------------------------

Intro/Verse: 
Guitar 1
|-----------------------------|  |-------------------------|
|/12------------------------0-|  |-------------------------|
|----9-7-4-7-4-7b(1/2)-4------|  |-------7-------4/7\4-----|x1
|-----------------------------|x3|-----4---5-5---2/5\2-----|
|-------------------------3---|  |--/5------5--0-----------|
|-----------------------------|  |-------------------------|

(Or this can be played for the intro/verse parts thanks to llBrunoGCll)
|--5/7--0---------------------|
|----------3p0-3p0-3p0~----0--|
|-----------------------------|
|-----------------------------|
|------------------------3----|
|-----------------------------|

Pre-Chorus: (Maybe something like this, I don't know)
Guitar 1
|-12-12-12-12-12-12--12-12-12-12-12--12-12-12-12-12--12-12-12--|
|-0--0--0--0--0--0---0--0--0--0--0---0--0--0--0--0---0--0--0---|
|-9--9--9--9--9--9---9--9--9--9--9---9--9--9--9--9---9--9--9---|
|-9--9--10-12-10-9---9--10-10-9--9---9--10-12-10-9---9--10-10--|
|--------------------------------------------------------------|
|--------------------------------------------------------------|

Chorus: (Guitar 1 bend the notes each time a little to get the same effect)
Guitar 1 clean (12 is a twelve)
|--------------------------------------|
|--------------------------------------|
|--------------------------------------| x3
|--------------------------------------|
|--------------------------------------|
|-0-0-12-00-12-00-12-00-12-8888--------|
|
|Guitar 2: (10 is a ten)
|--------------------------------------|
|--------------------------------------|
|--------------------------------------| x3
|-2-2----22----22----22----10101010----|
|-2-2----22----22----22----10101010----|
|-0-0----00----00----00----8-8-8-8-----|

Guitar 1 (10 is a ten)
|--------------------------------------|
|--------------------------------------|
|--------------------------------------| 
|--------------------------------------|
|--------------------------------------|
|-1010101010101010-55555555------------|
|
|Guitar 2: (10 is a ten) (12 is a twelve)
|--------------------------------------|
|--------------------------------------|
|--------------------------------------| 
|-1212121212121212-77777777------------|
|-1212121212121212-77777777------------|
|-1010101010101010-55555555------------|

Verse:
Guitar 1
|-----------------------------|  |-------------------------|
|/12------------------------0-|  |-------------------------|
|----9-7-4-7-4-7b(1/2)-4------|  |-------7-------4/7\4-----|x1
|-----------------------------|x3|-----4---5-5---2/5\2-----|
|-------------------------3---|  |--/5------5--0-----------|
|-----------------------------|  |-------------------------|

Pre-Chorus:
Guitar 1
|-12-12-12-12-12-12--12-12-12-12-12--12-12-12-12-12--12-12-12--|
|-0--0--0--0--0--0---0--0--0--0--0---0--0--0--0--0---0--0--0---|
|-9--9--9--9--9--9---9--9--9--9--9---9--9--9--9--9---9--9--9---|
|-9--9--10-12-10-9---9--10-10-9--9---9--10-12-10-9---9--10-10--|
|--------------------------------------------------------------|
|--------------------------------------------------------------|

Chorus: (Guitar 1 bend the notes each time a little to get the same effect)
Guitar 1 clean (12 is a twelve)
|--------------------------------------|
|--------------------------------------|
|--------------------------------------| x2
|--------------------------------------|
|--------------------------------------|
|-0-0-12-00-12-00-12-00-12-8888--------|
|
|Guitar 2: (10 is a ten)
|--------------------------------------|
|--------------------------------------|
|--------------------------------------| x2
|-2-2----22----22----22----10101010----|
|-2-2----22----22----22----10101010----|
|-0-0----00----00----00----8-8-8-8-----|

Guitar 1 clean (12 is a twelve)
|--------------------------------------|
|--------------------------------------|
|-----------14b(1/2)-------------------| 
|--------------------------------------|
|-----12b(1/2)-------------------------|
|-0-0----00----00-12-00-12-8888--------|
|
|Guitar 2: (10 is a ten)
|--------------------------------------|
|--------------------------------------|
|--------------------------------------| 
|-2-2----22----22----22----10101010----|
|-2-2----22----22----22----10101010----|
|-0-0----00----00----00----8-8-8-8-----|

Guitar 1 (10 is a ten)
|----------------------------------------------------|
|----------------------------------------------------|
|----------------------------------------------------| 
|----------------------------------------------------|
|----------------------------10---10-10-10---10---10-|
|-1010101010101010-55555555-8--8-8--8--8--8-8--8-8--8|
|
|Guitar 2: (10 is a ten) (12 is a twelve)
|----------------------------------------------------|
|----------------------------------------------------|
|----------------------------------------------------|
|-1212121212121212-77777777-1010101010101010-55555555|
|-1212121212121212-77777777-1010101010101010-55555555|
|-1010101010101010-55555555-8-8-8-8-8-8-8-8--33333333|


*Epic Breakdown*


Solo:
Guitar 1: (10 is a ten) (12 is a twelve)
|-----------------------------|  |-------------------------|
|-8-8-7-7-5-5-----------------|  |-8-8-7-7-10-10-12-12-----|
|-------------7-4-2-4---------|  |-------------------------|x1
|-----------------------------|x3|-------------------------|
|-----------------------------|  |-------------------------|
|-----------------------------|  |-------------------------|
|
|Guitar 2: (10 is a ten) (12 is a twelve)
|-----------------------------|  |-------------------------|
|-----------------------------|  |-------------------------|
|-----------------------------|  |-------------------------|x1
|-----------------------------|x3|-------------------------|
|-----------------------------|  |-------------------------|
|00-12-00-12-00-12-00-12-8888-|  |1010101010101010-55555555|

Guitar 1: (10 is a ten) (12 is a twelve)
|-----------------------------|  |-------------------------|
|-8-8-7-7-5-5-----------------|  |-8-8-7-7-10-10-12-12-----|
|-------------7-4-2-4---------|  |-------------------------|x1
|-----------------------------|x3|-------------------------|
|-----------------------------|  |-------------------------|
|-----------------------------|  |-------------------------|
|
|Guitar 2: (Bend 14 on the first and third time through)
|          (10 is a ten) (12 is a twelve) 
|-----------------------------|  |-------------------------|
|-----------------------------|  |-------------------------|
|-----------------------------|x3|-------------------------|x1
|---------14b(1/2)------------|  |-------------------------|
|-----------------------------|  |-------------------------|
|00-12-00----00-12-00-12-8888-|  |1010101010101010-55555555|

Ending:
Guitar 1: (10 is a ten) (12 is a twelve)
|-----------------------------|  
|-12-12-12-12-----------------|  
|-------------10-10-10-10-----|x2
|-----------------------------|
|-----------------------------|  
|-----------------------------|
|
|Guitar 2: (10 is a ten) (12 is a twelve)
|----------------------------------------------------|
|----------------------------------------------------|
|----------------------------------------------------|
|--1010101010101010-55555555-88888888-333333---------|
|--1010101010101010-55555555-88888888-333333---------|
|--8-8-8-8-8-8-8-8--33333333-66666666-111111---------|
|
|Guitar 3:
|-----------------------------------------------------|
|-----------------------------------------------------|
|-----------------------------------------------------| 
|-----------------------------------------------------|
|---10---10-10-10---10---10---10---10-10-10---10---10-|
|--8--8-8--8--8--8-8--8-8--8-8--8-8--8--8--8-8--8-8--8|


-------------------------------------------------------------------------------------------------------------
11. Noro
------------------------------------------------------------------------------------------------------------

Acoustic intro:

e|------15-15-15-14-10-------12-12-12-10-|
B|---------------------------------------|
G|---------------------------------------| X2
D|---14------------------10--------------|
A|---------------------------------------|
E|---------------------------------------|

Electric clean intro/verse/chorus:

e|------0----0-----0-----0----------------------------------|
B|------------------------------0-------0-------0-------0---|
G|----4-----4-----4-----4-----12------12------12------12----|Repeated through
D|--2-----2-----2-----2-----10------10------10------10------|  whole verse
A|----------------------------------------------------------|
E|----------------------------------------------------------|

Fuzz distortion enters (not sure if the guitar plays along with the bass but here 
it is anyway, chords are there too if you like).

      E Minor                      C major
e|---------------------------------------------------------------------------|
B|---------------------------------------------------------------------------|
G|---------------------------------------------------------------------------|
D|---------------------------------------------------------------------------|
A|-----7-7-7-5-7---5-7---5--/10~---5-----------------------------------------|
E|-----------------------------------8-8-8-7-8--7-8--7-8~--------------------|


short interlude after the chorus

Lead guitar:

e|-------8--8--8-----8--8--8----|
B|----0--0--0--0--0--0--0--0----|
G|----5b-5b-5b-0--5b-5b-5b-0----|
D|------------------------------|
A|------------------------------|
E|------------------------------|

Rhythm guitar

     
e|------------------------------|
B|------------------------------|
G|------------------------------|
D|----77777777--3333--2222------|
A|----77777777--3333--2222------|
E|----55555555--5555--4444------|



Verse again (few slight changes:

e|------0------0----0--------------------------------|
B|----------------------------------0--0---0---0-----|
G|----4-----4-----4----------------------------------|X2
D|--2-----2-----2-----0h2-2-------5---5---5---5-5----|
A|--------------------------0-2-3---3---3----3---3---|
E|---------------------------------------------------|

then returns to the previous verse pattern

e|------0-----0-----0-----0---------------------------------|
B|------------------------------0-------0-------0-------0---|
G|----4-----4-----4-----4-----12------12------12------12----|Repeated for the
D|--2-----2-----2-----2-----10------10------10------10------|  rest of the
A|----------------------------------------------------------|verse and chorus
E|----------------------------------------------------------|


Solo : WOOHOOO! ( this will be written with the solo and rhythym under it)

Lead guitar
e|-------------------------------------------|
B|--------------------------0----------------|
G|--------------------------0--7b(slow)-pb77-|
D|---10b-----9b----7b----22-0----------------|
A|-----------------------22-0----------------|
E|-----------------------00-0----------------|

Rhythm guitar
e|------------------------------------------|
B|------------------------------------------|
G|------------------------------------------|
D|---77777777-5555-2222---------------------|
A|---77777777-5555-2222--77757--57--5-10~---|
E|---55555555-3333-4444---------------------|


Lead guitar
e|---------------------555---555------------|
B|---------------------000---000------------|
G|------------------------------------------|
D|---9b------8b-------77775-77775-77777777--|
A|------------------------------------------|
E|------------------------------------------|

Rhythm guitar
e|------------------------------------------|
B|------------------------------------------|
G|------------------------------------------|
D|---77777777-55555555-44444444-33333333----|
A|---77777777-55555555-44444444-33333333----|
E|---55555555-33333333-22222222-11111111----|


then moves to a variation on this part... not to hard to figure out just listen very carefully

      E Minor                      C major
e|---------------------------------------------------------------------------|
B|---------------------------------------------------------------------------|
G|---------------------------------------------------------------------------|
D|---------------------------------------------------------------------------|
A|-----7-7-7-5-7---5-7---5--/10~---5-----------------------------------------|
E|-----------------------------------8-8-8-7-8--7-8--7-8~--------------------|









************************************

| /   slide up
| \   slide down
| h   hammer-on
| p   pull-off
| ~   vibrato
| +   harmonic
| x   Mute note
| b   Bend
| pb  Pre-bend
| br  Bend release
| pbr Pre-bend release
| brb Bend release bend

************************************
Добавлено: 15.10.2015
Другие материалы по этой песне:
  • Аккорды и текст

Страница создана 15.10.2015
http://primanota.ru/brand-new/daisy-album-chords.htm
Привет, Гость.
Предлагаем пройти революционный курс по гитаре.
Подарок от PrimaNota.Ru, забирай!