PrimaNota.ru - самый крупный в мире бесплатный архив песенных текстов, аккордов, табулатур и нот


Brand New Sin - Motormeth - текст песни, таба, бас-таба, видео

Регистрация Запомнить меня
Войти через:  Facebook Google Twitter Vk Yandex Mail.ru

Brand New Sin - Motormeth - текст песни, таба, бас-таба, видео

Печатать
Просмотров: 242
Motormeth by Brand New Sin
from Tequila

x on the tab = ghost note
x underneath = palm muted
                                                         
D------------------------------------------------------------|
A------------------------------------------------------------| slide on 3rd
F------------------------------------------------------------| fret but
C------------------------------------------------------5-3/--| don't slide 
G-0-0h3p0h3p0-0-0---0-0h3p0h5p0-0-0---0-0h3p0h3p0-0-0--5-3/--| off.
C-0-0h3p0h3p0-0-0---0-0h3p0h5p0-0-0---0-0h3p0h3p0-0-0--5-3/--|

0.18                                                       x2
D-----------------------------------------------------------|
A-----------------------------------------------------------|  
F-----------------------------------------------------------|     
C-0-0-0-0-0-0--x--0-0-0-0-0-0--x--0-0-0-0-0-0---------------|
G-0-0-0-0-0-0--x--0-0-0-0-0-0--x--0-0-0-0-0-0------5-----3--|
C-0-0-0-0-0-0--x--0-0-0-0-0-0--x--0-0-0-0-0-0--0-0---0-0----|
    x x x x x     x x x x x x     x x x x x x  

0.34 CHORUS                   x2
D-------------------------------|
A-------------------------------|
F-------------------------------|
C-2--5--0-----------------------|
G-2--5--0--5-----3-----5-----3--|
C-2--5--0----0-0---0-0---0-0----|

1.32
D--------------------------|
A--------------------------|
F--------------------------|
C--------------------------|
G-5-----3-----2-----1-0-0--|
C---0-0---0-0---0-0-----0--|

1.38                                                   x7
D----------------|              D-----------------------|
A----------------|              A-----------------------|
F----------------|repeat lots   F-----------------------|
C----------------|              C-9-8-12-9-8-7-5-5-7-5--|
G-5h7p5h7p5h7p5--|              G-9-8-12-9-8-7-5-5-7-5--|
C----------------|              C-9-8-12-9-8-7-5-5-7-5--|

2.10
D-------------|
A-------------|
F-------------|
C-9-8-7-5-2~--|
G-9-8-7-5-2~--|
C-9-8-7-5-2~--|

OUTRO 2.54
D-------------|
A-------------|
F-------------|
C-9-8-7-5-2~--|
G-9-8-7-5-2~--|
C-9-8-7-5-2~--|

Any corrections please comment
Thanks
Добавлено: 14.03.2012
Другие материалы по этой песне:
  • Аккорды и текст

Страница создана 28.02.2012
http://primanota.ru/brand-new-sin/motormeth-chords.htm
Привет, Гость.
Предлагаем пройти революционный курс по гитаре.
Подарок от PrimaNota.Ru, забирай!