PrimaNota.ru - самый крупный в мире бесплатный архив песенных текстов, аккордов, табулатур и нот


Brand New Sin - Missin You - текст песни, таба, видео

Регистрация Запомнить меня
Войти через:  Facebook Google Twitter Vk Yandex Mail.ru

Brand New Sin - Missin You - текст песни, таба, видео

Печатать
Просмотров: 142
Brand New Sin - Missin' You

Tabbed By Joseph Thompson, Bloodox@yahoo.com

6E 5A 4D 3G 2B 1e

Riff
e---------------------------|
B--------------------5-5h6--|
G--------------------5-5----|
D--------------------5-5----|
A------3-6--5--3--3--3-3----|
E-3h5-----------------------|

e---------------------------|
B--------------------3-3----|
G--------------------3-3----|
D--------------------3-3----|
A------3-6--5--1--1--1-1----|
E-3h5-----------------------|

e-----------------------------------|
B-----------------------------------|
G-----------------------------------|
D---------------------3/----3-3-3---|
A------3-6--5---------3/----3-3-3---|
E-3h5----------1--1-0-1/----1-0-1---|

e---------------------------|
B--------------------5-5h6--|
G--------------------5-5----|
D--------------------5-5----|
A------3-6--5--3--3--3-3----|
E-3h5-----------------------|

C
Well it's been so long
                       Bb
Since I last seen your face
                           F
The day you left without a trace

Wiped that smile right off my face
                C
Girl I'm missin you


C
I miss the touch of your skin
                         Bb
Just wondering where you been
                        F
I can't help my foolish pride

The day you left me up and died
                C
Girl I'm missin you


Bb    F
Ohhhh Ohhhh
            C
Girl I'm missin you
Bb    F
Ohhhh Ohhhhh
            C
Girl I'm missin you


C
The way you grabbed my world
                    Bb
And threw it on the floor
                           F
You looked at me with that face

And you walked right out the door
                C
Girl I'm missin You


Bb    F
Ohhhh Ohhhh
            C
Girl I'm missin you
Bb    F
Ohhhh Ohhhhh
            C
Girl I'm missin you


                       Bb
I cant help my foolish pride
                          F
The day you left I up and died
            C
Girl I'm missin you

You Get the point of the Chorus

Ohhhh Ohhhh

Girl I'm missin you

Ohhhh Ohhhhh

Girl I'm missin you

Ohhhh Ohhhh

Girl I'm missin you

Yeah yeah yeah

Girl I'm missin you

Missin you

Missin you

Missin You

Yeah yeah yeah
Добавлено: 02.04.2012
Другие материалы по этой песне:
  • Аккорды и текст

Страница создана 02.04.2012
http://primanota.ru/brand-new-sin/missin-you-chords.htm
Привет, Гость.
Предлагаем пройти революционный курс по гитаре.
Подарок от PrimaNota.Ru, забирай!