PrimaNota.ru - самый крупный в мире бесплатный архив песенных текстов, аккордов, табулатур и нот


Brand New Sin - Another Reason - текст песни, бас-таба, видео

Регистрация Запомнить меня
Войти через:  Facebook Google Twitter Vk Yandex Mail.ru

Brand New Sin - Another Reason - текст песни, бас-таба, видео

Печатать
Просмотров: 147
-------------------------------------------------------------------------------
			     Another Reason - Brand New Sin
-------------------------------------------------------------------------------

Tabbed By : Scourge441
e-mail: PrimusSucks626@aim.com

Tuning: Drop D (DADG)


Intro (after the acoustic guitar part)
G|-----------------------|---------------------------------------------------|
D|-----------------------|---------------------------------------------------|
A|---------5--3-3-1-1--1-|--------5--3-3-1-1--3h5p3--------------------------|
D|--3-5-0----------------|-3-5-0--------------------5p3h5-0------------------|

G|-----------------------|---------------------------------------------------|
D|-----------------------|---------------------------------------------------|
A|---------5--3-3-1-1--1-|--------5--3-3-1-1---------------------------------|
D|--3-5-0----------------|-3-5-0---------------------------------------------|


Verse Part 1
"Go on, living, on the edge, unforgiving..."
G|-----------|---------------------------------------------------------------|
D|-----------|---------------------------------------------------------------|
A|-----------|---------------------------------------------------------------|
D|--00000000-|--00000350-----------------------------------------------------|

Play the first measure 3 times, and then the next. Play this whole sequence twice, then...


Verse Part 2
G|-------------|------------|------------|-----------------------------------|
D|-------------|------------|------------|-----------------------------------|
A|-----------5-|----------3-|----------1-|-----------------------------------|
D|---0-00000---|--0000000---|---000000---|---0000-3-5-0----------------------|

G|-------------|------------|-----------|-------------|----------------------|
D|-------------|------------|-----------|-------------|----------------------|
A|-----------5-|----------3-|---------1-|-----------1-|--------1-1-1---------|
D|---0-00000---|--0000000---|--000000---|---0000000---|--00000---------------|


Chorus
"Always, another, another reason to drag you under..."
G|---------------------------------------------------------------------------|
D|-----0-3-6--0-3-5---------------0-3-6--0-3-5-------------------------------|
A|-----------------------3--------------------------3------------------------|
D|--0----------------3-5----3-5-0---------------3-5--------------------------|

Can't figure out the measures here, if anyone has knows them let me know.


Interlude
G|------------------|------------------|------------------|------------------|
D|------------------|------------------|------------------|------------------|
A|--5---5---5---5---|--5---5---5---5---|----3---3---3---3-|----1---1---1---1-|
D|----0---0---0---0-|----0---0---0---0-|--3---3---3---3---|--2---2---2---2---|


Order of song

Intro
Verse p-1
Verse p-2
Chorus
Verse p-1
Verse p-2
Chorus
Interlude
Chorus

During the solo at the end, play the chorus part.
Добавлено: 21.05.2012
Другие материалы по этой песне:
  • Аккорды и текст

Страница создана 12.05.2012
http://primanota.ru/brand-new-sin/another-reason-chords.htm
Привет, Гость.
Предлагаем пройти революционный курс по гитаре.
Подарок от PrimaNota.Ru, забирай!