PrimaNota.ru - самый крупный в мире бесплатный архив песенных текстов, аккордов, табулатур и нот


Bramhall Doyle Ii And Smokestack - So You Want It To Rain - таба, видео

Регистрация Запомнить меня
Войти через:  Facebook Google Twitter Vk Yandex Mail.ru

Bramhall Doyle Ii And Smokestack - So You Want It To Rain - таба, видео

Печатать
Просмотров: 110
Уроки эстрадного вокала в Санкт-Петербурге
Author: Mike Kruft
Artist: Doyle Bramhall II & Smokestack
Album:  Welcome
Song:   G You Want It To Rain

feel free to email me at evenwallsfalldwn@hotmail.com

If you're looking at this then bless you for liking good rock and roll.

(due to requests I'm adding more doyle tabs!)

^ - slight bend
* - major bend
p - pull off
h - hammer on
/ - slide up
~ - vibrato

Intro:
e--------3-----2--2--------   ----- -----0-
B------3---3--------3------   --2-- ----3--
G----2-------2--------2----   --2-- ---0---
D--0--------------------0--   --2-- -/4----
A--------------------------   ----- -------
E--------------------------   ----- -------
      Dsus2        D            A

(repeat once)


Verse:

Dsus2   D                 A
        G you want...

Dsus2   D                  A
        Just sit here with...

Dsus2   D             A
        Wash away all...

E
  Need a place...

E
  A place to call...

E
  Just you and me...

  And the rain..
e--------------------------------
B--------------------------------
G-----------6-----4--------------
D-----------0-----0--------------
A-----------7-----5--------------
E--------------------------------


Dsus2   D                 A
        Your skin is so...

Dsus2   D                  A
        And damp is the air...

Dsus2   D             A
        Everything has a...

E
  We Need a...

E
  A place to call...

E
  Just you and me...

  And the rain..
e--------------------------------
B--------------------------------
G-----------6-----4--------------
D-----------0-----0--------------
A-----------7-----5--------------
E--------------------------------


Chorus:  (Chords)

e------------------------------------------------------------
B------------------------------------------------------------
G----------------------------7------4-----6------7-----9-----
D-------7---------5----------7------4-----6------7-----9-----
A-------7---------5----------5------2-----4------5-----7-----
E-------5---------3------------------------------------------

        A         G          D      B     G#     D     E


riff: (I'm kind of sketchy about this)
e------------------------------------------------------------
B------------------------------------------------------------
G------------------------------------------------------------
D------------------3---2-------------------------------------
A-----0---2---3------------3---2-----------------------------
E----------------------------------3----2---0----------------


A    G    D
 riff>
A    G    D
 riff>

A                   G             D
  It's a beautiful day...                riff>
A                   G             D
  it's a beautiful day...                riff>
A              G      D
  no where to run....
A                   G            D
  such a beautiful day...


Verse:

Dsus2   D                 A
        Gonna leave it...

Dsus2   D                  A
        And never look back...

Dsus2   D             A
        This overcast day...

E
  We've got a place...

E
  A place to call...

E
  Just you and me...

  And the rain..
e--------------------------------
B--------------------------------
G-----------6-----4--------------
D-----------0-----0--------------
A-----------7-----5--------------
E--------------------------------


Chorus:
A    G    D
 riff>
A    G    D
 riff>

A                   G             D
  It's a beautiful day...               riff>
A                   G             D
  it's a beautiful day...               riff>
A              G      D
  no where to run...
A                   G            D    B    G#   D   E
  such a beautiful day...


Solo:    (continue chorus chords)
e-------------------------------------------------------------------------
B-------------------------------------------------------------------------
G-------------------------------------------------------------------------
D-------------12----------------------------------------------------------
A----12--14-------14---12--------12---14---12------12---14^p12------12----
E---------------------------14-----------------14---------------14--------

e-------------------------------------------------------------------------
B-------------------------------------------------------------------------
G-------------------------------------------------------------------------
D----------------------------------------------------------------------12-
A---14-12-------14-12-------14-12-------14-12-------14-12-----------14----
E--------14-12-------14-12-------14-12-------14-12-------14-12------------

e-------------------------------------------------------------------------
B-------------------------------------------------------------------------
G-------------------------------------------------------------------------
D--12--12--12--12---14-14-14-14-12--------14-14-14-12---------------------
A----------------------------------14-12--------------14-12---------------
E-------------------------------------------------------------------------

e-------------------------------------------------------------------------
B-------------------------------------------------------------------------
G-------------------------------------------------------------------------
D---14^-14^-14*-12--------------------------------------------------------
A------------------14-12-----12-------------12--12------------------------
E-------------------------------14--12--14--------------------------------

(That's not the entire thing, but you can ad-lib the last part of the solo)


Chorus:

A                   G             D
  Such a beautiful day...               riff>
A                   G             D
  it's a beautiful day...               riff>
A              G      D
  no where to run...
A                   G            D    B    G#   D   E
  such a beautiful day...
   B    G#   D   E
  rain...
   B    G#   D   E
  rain...


Outro:

Dsus2   D                 A

Dsus2   D                 A
        G you want it...
     
Добавлено: 17.09.2013
Вам также может быть интересно:
Другие материалы по этой песне:
  • Аккорды и текст

Страница создана 17.09.2013
http://primanota.ru/bramhall-doyle-ii-and-smokestack/so-you-want-it-to-rain-chords.htm
Привет, Гость.
Предлагаем пройти революционный курс по гитаре.
Подарок от PrimaNota.Ru, забирай!