PrimaNota.ru - самый крупный в мире бесплатный архив песенных текстов, аккордов, табулатур и нот


Bramhall Doyle Ii And Smokestack - Send Some Love - таба, видео

Регистрация Запомнить меня
Войти через:  Facebook Google Twitter Vk Yandex Mail.ru

Bramhall Doyle Ii And Smokestack - Send Some Love - таба, видео

Печатать
Просмотров: 105
Author: Mike Kruft
Artist: Doyle Bramhall II & Smokestack
Album:  Welcome
Song:   Send Some Love

feel free to email me at evenwallsfalldwn@hotmail.com

If you're looking at this then bless you for liking good rock and roll.

(due to requests I'm adding more doyle tabs!)

^ - slight bend
* - major bend
p - pull off
h - hammer on
/ - slide up
~ - vibrato
v - tremelo

Chords:

  Am          B          C         D       (open) E (barred)  (open) G (barred)
e------    ---2---    -------    --2---    ------    ------   ---3--    ------
B--1---    ---4---    ---1---    --3---    ------    ------   ------    ------
G--2---    ---4---    ---0---    --2---    --1---    ---9--   ------    --12--
D--2---    ---4---    ---2---    ------    --2---    ---9--   ------    --12--
A------    ---2---    ---3---    ------    --2---    ---7--   ---2--    --10--
E------    -------    -------    ------    ------    ------   ---3--    ------


Guitar Fill:
                  or
e-----------------  ------8--\--5------
B-----13--\--10---  ------8--\--5------
G-----12--\--9----  -------------------
D-----------------  -------------------
A-----------------  -------------------
E-----------------  -------------------


Intro:

There is one guitar picking the individual notes of each chord
and another guitar that slowly strums each chord one time.

e---------------------------------------------------------3--
B-----------1-------------------------1----------------------
G--------2---------------0--------2----------------0---------
D-----2--------------2--------2----------------2-------------
A----------------3-------------------------3--------------2--
E---------------------------------------------------------3--
        Am           C          Am           C            G


Verse:

G
You walked..

Am
 guitar fill>

You washed..

C
Didn't even notice..

 intro pattern>

That I followed..


Chorus:  (also done in picking pattern, e.g. intro)

C       E            Am
Please, you better.. some love

C       E            Am
Please, you better.. send it..

D             B           E barred    (second time, end on G barred)
Right away..  Yeah yeah..


Solo:

e---------------------------------------------------------------17-17~---
B---15h17~---17p15--------15-------15h17--17p15---------15---------------
G------------------17-17-----14~-----------------17-17------17-----------
D------------------------------------------------------------------------
A------------------------------------------------------------------------
E------------------------------------------------------------------------

e------------------------------------------------------------------------
B---15h17~---17p15--------15-------------------15------------------------
G------------------17-17-----14-----12/14-------------------16-----------
D-------------------------------------------17---------------------------
A------------------------------------------------------------------------
E------------------------------------------------------------------------

e--------------------------17--15----------------------------------------
B---15---17-----17---15-------------15h17p15-----------------------------
G-------------------------------------------16-14------------------------
D----------------------------------------------------17-15------------14-
A----------------------------------------------------------17---------14-
E-------------------------------------------------------------/17p15--12-


Guitar Outros:

e------------------------------------------------------------------------
B---15h17--15h17^--15------15h17--15-------------------------------------
G---------------------17-------------17~---------------------------------
D------------------------------------------------------------------------
A------------------------------------------------------------------------
E------------------------------------------------------------------------

e------------------------------------------------------------------------
B------------------------------15----------------------------------------
G----17^--17*---17---14------------17~-----------------------------------
D-------------------------17---------------------------------------------
A------------------------------------------------------------------------
E------------------------------------------------------------------------

e------------------------------------------------------------------------
B------------------------------------------------------------------------
G----12h14---12----------------------------------------------------------
D----------------14---12-----------------------12~-12~-------------------
A-------------------------12--12------12--14--------------12--12---------
E------------------------------------------------------------------------

e-------15---17~-----------------19-----22~vvv---------------------------
B------------------------------------------------------------------------
G------------------------------------------------------------------------
D------------------------------------------------------------------------
A------------------------------------------------------------------------
E------------------------------------------------------------------------

     
Добавлено: 01.06.2013
Другие материалы по этой песне:
  • Аккорды и текст

Страница создана 01.06.2013
http://primanota.ru/bramhall-doyle-ii-and-smokestack/send-some-love-chords.htm
Привет, Гость.
Предлагаем пройти революционный курс по гитаре.
Подарок от PrimaNota.Ru, забирай!