PrimaNota.ru - самый крупный в мире бесплатный архив песенных текстов, аккордов, табулатур и нот


Bramhall Doyle Ii And Smokestack - Green Light Girl - таба, видео

Регистрация Запомнить меня
Войти через:  Facebook Google Twitter Vk Yandex Mail.ru

Bramhall Doyle Ii And Smokestack - Green Light Girl - таба, видео

Печатать
Просмотров: 155
Green Light Girl

Bramhall himself uses a mute-distortion pedal in the =
song, and uses tons of palm-muting on top of that.  The solo is pretty =
straightforward as well, if not, your ear should tell you.

^ -  slight bend
p -  pull off
h -  hammer on
~ -  vibrato
(x)- grace note

Intro / Riff 1:
e--------------------------------|-----------------------------------
B--------------------------------|-----------------------------------
G--7-p-5-------------------------|--7-p-5----------------------------
D---------7---5-----7-p-5--------|--------7---5-----7-p-5------------
A-----------8-------------8----5-|----------8--------------8---------
E----------------------------8---|---------------------------8~------

He uses power and barre chords for the verse and chorus, usually a fast =
palm-muted strum on 16th beats (T means 10th fret, E means 12th):

D:    x577xx
C:    x355xx
G:    355433 - G used in chorus is: xTEExx
F:    x8TTxx

Solo begins with tremolo:
e------10--10-----10---12---14----
B------10--10-----10---12---14----
G---------------------------------
D---------------------------------
A---------------------------------
E---------------------------------

  D (Rhythm)
e---------------------------------------15-13--------------
B-15-15-13----------13-13-15~---(15)----------15----13-15--
G----------14-12-14------------------14----------14--------
D----------------------------------------------------------
A----------------------------------------------------------
E----------------------------------------------------------

  C (Rhythm)                                    G (Rhythm)
e----13-15-17-15--------------13-15-17-13----13-17^~-15~------13-------
B-15-------------15-(15)-(15)-------------15-------------(15)----------
G----------------------------------------------------------------------
D----------------------------------------------------------------------
A----------------------------------------------------------------------
E----------------------------------------------------------------------

e-15-13----------------------------------------------------------------
B-------15-13----------15-13-------------------------------------------
G-------------14-12-14-------14-12-10----10-h-12-p-10------------------
D-------------------------------------12--------------12-10-12~--------
A----------------------------------------------------------------------
E----------------------------------------------------------------------

Song Structure:
Intro (Riff 1) / Verse / Chorus / Riff 1 / Verse / Chorus / Riff 1 / =
Solo / Chorus / Riff 1 / End
     
Добавлено: 24.09.2013
Другие материалы по этой песне:
  • Аккорды и текст

Страница создана 24.09.2013
http://primanota.ru/bramhall-doyle-ii-and-smokestack/green-light-girl-chords.htm
Привет, Гость.
Предлагаем пройти революционный курс по гитаре.
Подарок от PrimaNota.Ru, забирай!