PrimaNota.ru - самый крупный в мире бесплатный архив песенных текстов, аккордов, табулатур и нот


Brainstorm - Thunder Without Rain - текст песни, таба, видео

Регистрация Запомнить меня
Войти через:  Facebook Google Twitter Vk Yandex Mail.ru

Brainstorm - Thunder Without Rain - текст песни, таба, видео

Печатать
Просмотров: 478
Title   Thunder Without Rain
Artist  Brainstorm (Latvian)
Album   Four Shores (2006) 




                            Bm
It's like a thunder without rain
                       D
Or like a week without sunday
                       A
Or like a book without last page
                        Em
You want to buy and have to pay

                Em
A storm without rain
                D
Without any destruction
                A
It's a good old game
                                Em
Million pleasures, but no satisfaction

Storm takes your desires
And all expectations
It would happen anyway
It's the only way to lose your frustration

E:--9---9---9---10---9---9-----|
B:---7---7---7----7---7---7----|
G:----7---7--------7---7-------|
D:-----------------------------|
A:-----------------------------|
E:-----------------------------|

It's like a thunder without rain
Or like a week without sunday
Or like a book without last page
You want to buy and have to pay
And you can feel without a touch,
And you can hear without speakers.
Of course, you'll see without TV,
And we will run without sneakers.

Red, red sky,
And Atlants are swimming by.
The same mistakes,
Different time and different place.

E:--------------------------------|
B:----------------------5---------|
G:--4--5~~--5--7--5--7----5-------|
D:--------------------------------|
A:--------------------------------|
E:--------------------------------|

Red, red sky,
And Atlants are swimming by.
The same mistakes,
Different time and different place.

E:----10---10-----10---10----9---9---9---10---9---9------|
B:---7----7------7----7-------7---7---7----7---7---7-----|
G:--7----7------7----7---------7---7--------7---7--------|
D:-------------------------------------------------------|
A:-------------------------------------------------------|
E:-------------------------------------------------------|

It's like a thunder without rain
Or like a week without sunday
Or like a book without last page
You want to buy and have to pay
And you can feel without a touch,
And you can hear without speakers.
Of course, you'll see without TV,
And we will run without sneakers.

solo

E:--19b~-----------------------------------------------------------|
B:--------12~~---12h14p12------------------------------------------|
G:-----------------------14-13-------------------------------------|
D:-----------------------------------------------------------------|
A:-----------------------------------------------------------------|
E:-----------------------------------------------------------------|



E:--19b~-----------------------------------------------------------|
B:--------12~~---12h14p12------------------------------------------|
G:-----------------------14-13---13/14-14/16-16/18-18/19-21~~------|
D:-----------------------------------------------------------------|
A:-----------------------------------------------------------------|
E:-----------------------------------------------------------------|

Bm 
One song is over,
          D
Another one in .
Bm
The more you know, the more you know,
          D
You try to forget.
            A       
Yeah, heaven and earth,
               D
There will be no winners.
              A
As we all are sleaves,
                       Em
And we are, we are sad sinners.

E:----10---10-----10---10------10---10-----10---10-------|
B:---7----7------7----7-------7----7------7----7---------|
G:--7----7------7----7-------7----7------7----7----------|
D:-------------------------------------------------------|
A:-------------------------------------------------------|
E:-------------------------------------------------------|

E:----10---10-----10---10----9---9---9---10---9---9------|
B:---7----7------7----7-------7---7---7----7---7---7-----|
G:--7----7------7----7---------7---7--------7---7--------|
D:-------------------------------------------------------|
A:-------------------------------------------------------|
E:-------------------------------------------------------|

                          Bm
It's like a thunder without rain
                           D
Or like a week without sunday
                         A
Or like a book without last page
                            Em
You want to buy and have to pay
                           Bm
And you can feel without a touch,
                           D
And you will hear without speakers.
                        A
Of course, you'll see without TV,
                          Em
And we will run without sneakers.

Bm D A  Em
...

There are a lot of (-sus) chords played. ex: Bm Bsus2 Bm in the chorus.
Just try to improvise.
Добавлено: 12.03.2012
Другие материалы по этой песне:
  • Аккорды и текст

Страница создана 12.03.2012
http://primanota.ru/brainstorm/thunder-without-rain-chords.htm
Привет, Гость.
Предлагаем пройти революционный курс по гитаре.
Подарок от PrimaNota.Ru, забирай!