PrimaNota.ru - самый крупный в мире бесплатный архив песенных текстов, аккордов, табулатур и нот


Brains All Gone - Retarded - таба, видео

Регистрация Запомнить меня
Войти через:  Facebook Google Twitter Vk Yandex Mail.ru

Brains All Gone - Retarded - таба, видео

Печатать
Просмотров: 77
www.facebook.com/brainsallgoneofficial

INTRO:

|---------------------------------|
|---------------------------------|
|-6-6-6-6-6-6-6-6-6-6-6-6-6-6-6-6-|
|---------------------------------|
|-4-4-4-4-4-4-4-4-4-4-4-4-4-4-4-4-|
|---------------------------------|

|---------------------------------| \
|---------------------------------|  \
|---------------------------------|
|-4-4-4-4-4-4-4-4-6-6-6-6-6-6-6-6-|    x3
|-4-4-4-4-4-4-4-4-6-6-6-6-6-6-6-6-|  /
|-2-2-2-2-2-2-2-2-4-4-4-4-4-4-4-4-| /

|---------------------------------|
|---------------------------------|
|-6-6---6-6-6---6-6---6---6---6---|
|---------------------------------|
|-4-4---4-4-4---4-4---4---4---4---|
|---------------------------------|

VERSE:

PM...     ...     ...     ...
|---------------------------------| \
|---------------------------------|  \
|---------------------------------|
|-4-4-4---4-4-4---6-6-6---6-6-6---|    x3
|-4-4-4---4-4-4---6-6-6---6-6-6---|  /
|-2-2-2---2-2-2---4-4-4---4-4-4---| /

PM...     ...          
|---------------------------------| 
|---------------------------------|  
|---------------------------------|
|-4-4-4---4-4-4---6-6-6-6-6-6-6-6-|    
|-4-4-4---4-4-4---6-6-6-6-6-6-6-6-|  
|-2-2-2---2-2-2---4-4-4-4-4-4-4-4-|

BRIDGE: 

|---------------------------------|
|---------------------------------|
|--6-6--6-6-6---8-8-8--8-8-8------|
|---------------------------------|
|--4-4--4-4-4---6-6-6--6-6-6------|
|---------------------------------|

|---------------------------------|
|---------------------------------|
|-10-10-10--10-10-10-x------------|
|--------------------x-10-10-10-10|
|--8--8--8---8--8--8-x------------|
|-----------------------8--8--8--8|

VERSE

CHORUS:

|---------------------------------| \
|---------------------------------|  \
|-8-8-8-8-8-8-8-8-----------------|   \
|-8-8-8-8-8-8-8-8-8-8-8-8-8-8-8-8-|    |
|-6-6-6-6-6-6-6-6-8-8-8-8-8-8-8-8-|    | 
|-----------------6-6-6-6-6-6-6-6-|    |
                                        x4
|---------------------------------|    |
|---------------------------------|    |
|---------------------------------|    |
|-6-6-6-6-6-6-6-6-------------x-x-|   /
|-6-6-6-6-6-6-6-6-------------x-x-|  /
|-4-4-4-4-4-4-4-4-6-6-4-4-6-6-x-x-| /

BRIDGE 2:

|---------------------------------| \
|---------------------------------|  \
|---------------------------------|
|-4-4-4-4-4-4-4-4-6-6-6-6-6-6-6-6-|    x3
|-4-4-4-4-4-4-4-4-6-6-6-6-6-6-6-6-|  /
|-2-2-2-2-2-2-2-2-4-4-4-4-4-4-4-4-| /

|---------------------------------|
|---------------------------------|
|-6-6---6-6-6---6-6---6---6---6---|
|---------------------------------|
|-4-4---4-4-4---4-4---4---4---4---|
|---------------------------------|

VERSE
CHORUS

SOLO:

|---------------------------------|
|---------------------------------|
|-8-8-----10-13-13--12-12--10-----|
|-----8-8-------------------------|
|---------------------------------|
|---------------------------------|

|---------------------------------|
|---------------------------------|
|-8-8-----10-131313-121212-10-10--|
|-----8-8-------------------------|
|---------------------------------|
|---------------------------------|

CHORUS x2

THE END LOL
Добавлено: 02.07.2013
Вам также может быть интересно:
Другие материалы по этой песне:
  • Аккорды и текст

Страница создана 02.07.2013
http://primanota.ru/brains-all-gone/retarded-chords.htm
Привет, Гость.
Предлагаем пройти революционный курс по гитаре.
Подарок от PrimaNota.Ru, забирай!