PrimaNota.ru - самый крупный в мире бесплатный архив песенных текстов, аккордов, табулатур и нот


Braincoats - L-x - таба, видео

Регистрация Запомнить меня
Войти через:  Facebook Google Twitter Vk Yandex Mail.ru

Braincoats - L-x - таба, видео

Печатать
Просмотров: 80
Уроки эстрадного вокала в Санкт-Петербурге
-------------------------------------------------------------------------------
                             L-X - BRAINCOATS
-------------------------------------------------------------------------------
Tabbed by: Klarence E. Axtell

Tuning: Eb

Could use some work, so feel free to improve this tab! Especially the solo.

Play the verse like I tabbed it but palm-mute during the short pauses.
Listen to the song!

    Intro/verse
eb|---------------------------------------------------------------------------|
Bb|---------------------------------------------------------------------------|
Gb|--7-7-7----------------4-4-4-----------------------------------------------|
Db|--7-7-7------5---5--5--4-4-4------5---5--5---------------------------------|
Ab|--5-5-5--5-5-5---5--5--2-2-2--5-5-5---5--5---------------------------------|
Eb|---------2-2-3---3--3---------2-2-3---3--3---------------------------------|

   Intro melody thingy
eb|---------------5--5--------------------------------------------------------|
Bb|--7--7--5--5-5-------5--5-5------------------------------------------------|
Gb|---7--7--7--7-7-7--7--7--7-7-----------------------------------------------|
Db|---------------------------------------------------------------------------|
Ab|---------------------------------------------------------------------------|
Eb|---------------------------------------------------------------------------|

    Pre-chorus
eb|---------------------------------------------------------------------------|
Bb|--7-7-7--------------------------------------------------------------------|
Gb|--7-7-7-----------------4--------------------------------------------------|
Db|--5-5-5-------5---5--5--4--7--5--------------------------------------------|
Ab|----------5-5-5---5--5--2--7--5--------------------------------------------|
Eb|----------2-2-3---3--3-----5--3--------------------------------------------|

    Chorus
eb|---------------------------------------------------------------------------|
Bb|---------------------------------------------------------------------------|
Gb|--7-7-77--------------------------5-5-55-----------7-7-77-7-77-77----------|
Db|--7-7-77--7-77-77--5-5-55-5-5-55--5-5-55--5-55-55--7-7-77-7-77-77----------|
Ab|--5-5-55--7-77-77--5-5-55-5-5-55--3-3-33--5-55-55--5-5-55-5-55-55----------|
Eb|----------5-55-55--3-3-33-3-3-33----------3-33-33--------------------------|

    Solo
eb|---------------2-3-2--------------------5555-------------------------------|
Bb|--3-33-5-5-3-5-------5-3-----3-5b6-5-5b6----rb5-3----3---3---3---3---------|
Gb|-------------------------2-4----------------------2h4-2h4-2h4-2h4----------|
Db|---------------------------------------------------------------------------|
Ab|---------------------------------------------------------------------------|
Eb|---------------------------------------------------------------------------|
    Solo part 2
eb|--5b6-5-3-2-3-2---------------3-2-3----------------------------------------|
Bb|----------------5b5b5b5b5b5b-3-3-3-3-5b6-5-3-----3-5-6b7777br-5-3----------|
Gb|-----------------------------------------------4---------------------------|
Db|---------------------------------------------------------------------------|
Ab|---------------------------------------------------------------------------|
Eb|---------------------------------------------------------------------------|
    Song End
eb|---------------------------------------------------------------------------|
Bb|---------------------------------------------------------------------------|
Gb|--3-3-3---3----------------------------------------------------------------|
Db|--3-3-3-3-3----------------------------------------------------------------|
Ab|--5-5-5-3-5----------------------------------------------------------------|
Eb|--------5------------------------------------------------------------------|


************************************

| /   slide up
| \   slide down
| h   hammer-on
| p   pull-off
| ~   vibrato
| +   harmonic
| x   Mute note
| b   Bend
| pb  Pre-bend
| br  Bend release
| pbr Pre-bend release
| brb Bend release bend

************************************
Добавлено: 06.12.2015
Вам также может быть интересно:
Другие материалы по этой песне:
  • Аккорды и текст

Страница создана 06.12.2015
http://primanota.ru/braincoats/l-x-chords.htm
Привет, Гость.
Предлагаем пройти революционный курс по гитаре.
Подарок от PrimaNota.Ru, забирай!