PrimaNota.ru - самый крупный в мире бесплатный архив песенных текстов, аккордов, табулатур и нот


Braincoats - Ive Been Poisoned - таба, видео

Регистрация Запомнить меня
Войти через:  Facebook Google Twitter Vk Yandex Mail.ru

Braincoats - Ive Been Poisoned - таба, видео

Печатать
Просмотров: 129
Уроки эстрадного вокала в Санкт-Петербурге
-------------------------------------------------------------------------------
                             I've been Poisoned - Braincoats
-------------------------------------------------------------------------------
Tabed by: CravingAura
E-mail: N/A

NOTE: Braincoats actually plays this song a half step down.
If you want to play it exactly like them tune your guitar down a half step
and just play one fret to the right. :)

NOTE: I am not so sure how this song is structured (hence the (?)'s) but it is in order! :)

NOTE: This is my first tab so cut it a little slack. :)

Tuning: e A D G B E

Intro:
e|---------------------------------------------------------------------------|
b|---------------------------------------------------------------------------|
G|---------------6-6-6-8---x-x-x---6-6-6---------6-6-6-8---x-x-x-------------|
D|-3-3-3-6-6-6-6-6-6-6-8---x-x-x---6-6-6-6-6-6-6-6-6-6-8---x-x-x-------------| 3x
A|-3-3-3-6-6-6-6-4-4-4-6---x-x-x---4-4-4-6-6-6-6-4-4-4-6---x-x-x-------------|
E|-1-1-1-4-4-4-4-------------------------4-4-4-4-----------------------------|

e|---------------------------------------------------------------------------|
b|---------------------------------------------------------------------------|
G|---------------6-6-6-8---x-x-x---6-6-6---------6-6-6-8---------------------|
D|-3------6-6-6--6-6-6-8---x-x-x---6-6-6-6-6-6-6-6-6-6-8---------------------| 1x
A|-3------6-6-6--4-4-4-6---x-x-x---4-4-4-6-6-6-6-4-4-4-6---------------------|
E|-1------4-4-4---------------------------4-4-4-4----------------------------|
 "A used syringe stuck through my arm, to a vein..."

e|---------------------------------------------------------------------------|
b|---------------------------------------------------------------------------|
G|---------------6-6-6-8---x-x-x---6-6-6---------6-6-6-8---x-x-x-------------|
D|-3-3-3-6-6-6-6-6-6-6-8---x-x-x---6-6-6-6-6-6-6-6-6-6-8---x-x-x-------------| 4x
A|-3-3-3-6-6-6-6-4-4-4-6---x-x-x---4-4-4-6-6-6-6-4-4-4-6---x-x-x-------------|
E|-1-1-1-4-4-4-4-------------------------4-4-4-4-----------------------------|

Verse(?)
e|---------------------------------------------------------------------------|
b|---------------------------------------------------------------------------|
G|-6------8------------------------------------------------------------------|
D|-6-x7---8-x7---------------------------------------------------------------| 3x
A|-4------6------------------------------------------------------------------|
E|---------------------------------------------------------------------------|
 "I'm such a bad boy..."
Chorus(?)
e|---------------------------------------------------------------------------|
b|---------------------------------------------------------------------------|
G|-----6-----6------6------6--------------------8-----8----------------------|
D|-----6-----6------6------6------6------6------8-----8----------------------| 2x
A|-4-4---4-4----4-4----4-4--------6------6--6-6---6-6------------------------|
E|----------------------------4-4----4-4-------------------------------------|
 |                                                                           |
PM-*-*---*-*----*-*----*-*----*-*----*-*----*-*---*-*------------------------|
 "Feels like I'm getting sicker by the hour..."

 NOTE: Go back to intro and play from there and repeat as many times necessary.


That's pretty much all you need to know. Just remember that the last chorus has
no palm muting and it is just the power chord! :)
And sorry I couldn't figure out the solo.

Enjoy!!! :D

************************************

| /   slide up
| \   slide down
| h   hammer-on
| p   pull-off
| ~   virato
| +   harmonic
| x   Mute note
|    end
| p  Pre-end
| r  end release
| pr Pre-end release
| r end release end

************************************
Добавлено: 24.06.2016
Другие материалы по этой песне:
  • Аккорды и текст

Страница создана 24.06.2016
http://primanota.ru/braincoats/ive-been-poisoned-chords.htm
Привет, Гость.
Предлагаем пройти революционный курс по гитаре.
Подарок от PrimaNota.Ru, забирай!